Download Options  MIDI - TablEdit

Home        Back to previous page - Frames - No Frames


Blues in A     

Traditional Arranged & TablEdited by Len Curle


Tuning : E A D G B E 	Time Signature: 4/4
 |       |       |       |        |       |       |       |        
|5-------5-------5-------5-------|--------0---------------5-----5-|
|--------4-------3-------2-----2-|------0-------------------------|
|--------------------------------|2-------------------------------|
|2-------4-------3---------------|----------------2---------------|
|------------------------0-------|------------------------0-------|
|--------------------------------|--------0-----------------------|

 |       |       |       |        |       |       |       |        
|--------------5---------7-----7-|----------------7-----8---------|
|--------2-----------------------|--------------------------------|
|------2-------------------------|7---------------7---------------|
|2---------------2---------------|--------------------------------|
|--------0---------------7-------|--------7-----------------------|
|--------------------------------|--------------------------------|

 |       |       |       |        |       |       |       |        
|5-------------------------------|--------------------------------|
|--------5---------------------5-|----------------------5---------|
|----------------7-------5-------|------7-5-----------------------|
|--------------------------------|----------------7---------------|
|--------------------------------|--------------------------------|
|--------------------------------|--------------------------------|

 |       |       |       |        |       |       |       |        
|--------------------------------|--------------------------------|
|--------------------------------|--------------------------------|
|7-----5-7-----5-----------------|--------------------------------|
|----------------7-----5-7-------|--------------------------------|
|--------------------------------|--------------------------------|
|--------------------------------|--------------------------------|