Download Options  MIDI - TablEdit

Home        Back to previous page - Frames - No Frames



Blues in D

Traditional Arranged & TablEdited by Len Curle

Tuning : E A D G B E 	Time Signature: 12/8

 |     |     |     |      |     |     |     |      |     |     |     |      
|2-----1-----0-----------|------------------2-----|----------2-------0-----|
|------------------3-----|----------------3-------|3-----3-----------------|
|2-----1-----0-----------|2-----------------------|----2-------------------|
|------------------0-----|------------2-----------|0-----------0-----------|
|------------------------|------0-----------0-----|------0-----------0-----|
|------------------------|------------------------|------------------------|

 |     |     |     |      |     |     |     |      |     |     |     |      
|5-----3---5-------1-----|0---------0-------------|------------------2-----|
|----2-----------0-------|------3-----------3-----|----------------3-------|
|------------------------|------------------------|------------------------|
|2-----------2-----------|0-----------0-----------|0-----------0-----------|
|------0-----------------|------------------0-----|------0-----------0-----|
|------------------3-----|------3-----------------|------------------------|

 |     |     |     |      |     |     |     |      |     |     |     |      
|2---------2-------0-----|------1---0-------------|2-----1-----0-----------|
|------3-----------------|------------3---0-3-----|------------------3-----|
|----2-------------------|------------------------|2-----1-----0-----------|
|0-----------0-----------|2-----------0-----------|------------------0-----|
|------0-----------0-----|------------------0-----|------------------------|
|------------------------|------3-----------------|------------------------|

 |     |     |     |      |     |     |     |      |     |     |     |      
|------------0-----2-----|------------2-----0-----|------------0-----1-----|
|----------2-----3-------|----------3-------------|----------2-------------|
|2-----------------------|------------------------|------------------------|
|------------2-----------|0-----------0-----------|2-----------2-----------|
|------0-----------0-----|------0-----------0-----|------0-----------------|
|------------------------|------------------------|------------------3-----|

 |     |     |     |      |     |     |     |      |     |     |     |      
|0---------0-------------|------------------2-----|------------2-----0-----|
|------3-----------3-----|------------0---3-------|----------3-------------|
|------------------------|----------2-------------|------------------------|
|0-----------0-----------|0-----------0-----------|0-----------0-----------|
|------------------0-----|------0-----------0-----|------0-----------0-----|
|------3-----------------|------------------------|------------------------|

 |     |     |     |      |     |     |     |      |     |     |     |      
|------1---0-------------|2-----1-----0-----------|------------------2-----|
|------------3---0-3-----|------------------3-----|------2---------3-------|
|------------------------|2-----1-----0-----------|2-----------------------|
|2-----------0-----------|------------------0-----|------------2-----------|
|------------------0-----|------------------------|------0-----------0-----|
|------3-----------------|------------------------|------------------------|

 |     |     |     |      |     |     |     |      |     |     |     |      
|2---------2-------5-----|5-----3---5-------1-----|0---------0-------1-----|
|------3---------2-------|----2-----------0-------|------3---------0-------|
|----2-------------------|------------------------|------------------------|
|0-----------0-----------|2-----------0-----------|0-----------0-----------|
|------0-----------0-----|------0-----------------|------------------------|
|------------------------|------------------3-----|------3-----------3-----|

 |     |     |     |      |     |     |     |      |     |     |     |      
|0---0-----0-------2-----|2---------2-------0-----|------1---0-------------|
|------3---------3-------|------3-----------------|------------3---0-3-----|
|------------------------|----2-------------------|------------------------|
|0-----------0-----------|0-----------0-----------|2-----------0-----------|
|------------------0-----|------0-----------0-----|------------------0-----|
|------3-----------------|------------------------|------3-----------------|

 |     |     |     |      |     |     |     |      |     |     |     |      
|2-----1-----0-----------|------------------------|------------------------|
|------------------3-----|------------2-----3-----|------------------------|
|2-----1-----0-----------|2-----------------------|------------------------|
|------------------0-----|------------2-----0-----|------------------------|
|------------------------|------0-----------------|------------------------|
|------------------------|------------------------|------------------------|