Download Options  TablEdit - MIDI

Home        Back to previous page - Frames - No Frames

 

CC Rider

Arranged & TablEdited by Len Curle

Tuning : E A D G B E Time Signature: 4/4

  |       |       |       |          |       |       |       |         
||------------------------0--------|----------------------------------|
|*---------------------------------|---------------1h3-------1--------|
||---------------------------------|----------------------------------|
||---------------------------------|-2---------------2----------------|
|*--------0-------2-------3--------|---------3---------------3--------|
||3--------------------------------|----------------------------------|

  |       |       |       |          |       |       |       |         
|-------------------------0--------|----------------------------------|
|-----------------------1----------|-3-------1------------------------|
|---------0------------------------|-----------------0-------3--------|
|-2---------------2----------------|-2---------------2----------------|
|---------3---------------3--------|---------3---------------3--------|
|----------------------------------|----------------------------------|

  |       |       |       |          |       |       |       |         
|----------------------------------|----------------------------------|
|----------------------------------|-1-----3-1------------------------|
|-------------------------------2--|---------------2---------------2--|
|-2---------------0----------------|-3---------------3----------------|
|---------3------------------------|----------------------------------|
|-------------------------1--------|---------1---------------1--------|

  |       |       |       |          |       |       |       |         
|----------------------------------|----------------------------------|
|-1-----3-1------------------------|----------------------------------|
|-----------------2-------0--------|----------------------------------|
|-3---------------3----------------|-2--------------------------------|
|-------------------------3--------|-----------------2-------3--------|
|---------1------------------------|---------3------------------------|

  |       |       |       |          |       |       |       |         
|----------------------------------|---------------0------------------|
|-----------------1-------3--------|-3-------3---------------3--------|
|---------------0-------0----------|-------0---------------0----------|
|-2---------------2----------------|-0---------------0----------------|
|---------3------------------------|----------------------------------|
|-------------------------3--------|---------3---------------3--------|

  |       |       |       |          |       |       |       |         
|-0-------------0------------------|---------------------------------||
|---------3---------------1--------|---------------------------------*|
|----------------------------------|---------------------------------||
|-0---------------0----------------|-2---------------2---------------||
|-------------------------3--------|---------3---------------3-------*|
|---------3------------------------|---------------------------------||