Download Options  MIDI - TablEdit

Home        Back to previous page - Frames - No Frames

 

St. James Infirmary

By Irving Mills Arranged & TablEdited by Len Curle


Tuning : F# B E A C# F# (capo at second fret using A min chordshapes) Time Signature: 4/4


  |       |       |       |          |       |       |       |         
|-5-------5-------3-------3--------|-1-------1-------0-----0----------|
|-5-------5-------3-------3--------|-1-------1-------0-------0--------|
|---------5---------------4--------|---------2------------------------|
|----------------------------------|-------------------------2--------|
|----------------------------------|----------------------------------|
|-5---------------3----------------|-1---------------0----------------|

  |       |       |       |          |       |       |       |         
|-5-------5-------3-------3--------|-1-------1-------0----------------|
|-5-------5-------3-------3--------|-1-------1-------0-------------1--|
|---------5---------------4--------|---------2------------------------|
|----------------------------------|-------------------------2--------|
|----------------------------------|----------------------------------|
|-5---------------3----------------|-1---------------0----------------|

  |       |       |       |          |       |       |       |         
||0-------0-------1----------------|-0--------------------------------|
|*------1-----------------1--------|---------3-----3---------------1--|
||---------------------------------|----------------------------------|
||--------2---------------3--------|---------2---------------2--------|
|*0--------------------------------|----------------------------------|
||----------------1----------------|-0---------------0----------------|

  |       |       |       |          |       |       |       |         
|-0-------0-------1----------------|-0-----------------------0--------|
|-------------------------1--------|-----------------------0----------|
|----------------------------------|----------------------------------|
|---------2---------------3--------|---------2---------------2--------|
|-0--------------------------------|----------------------------------|
|-----------------1----------------|-0---------------0----------------|

  |       |       |       |          |       |       |       |         
|-5-------5-------3-------3--------|-1-------1-------0----------------|
|-5-------5-------3-------3--------|-1-------1-------0-------0--------|
|---------5---------------4--------|---------2------------------------|
|----------------------------------|-------------------------2--------|
|----------------------------------|----------------------------------|
|-5---------------3----------------|-1---------------0----------------|

  |       |       |       |          |       |       |       |         
|----------------------------------|----------------------------------|
|----------------------------------|----------------------------------|
|-2-------2-------1-------1--------|-2-----------------------------0h-|
|---------2---------------2--------|---------2---------------2--------|
|-0--------------------------------|-0--------------------------------|
|-----------------0----------------|-----------------0----------------|

  |       |       |       |        >1|       |       |       |         
|---------------------------------||---------------------------------||
|---------------------------------||-------------------------------1-*|
|-2-------2-------1-------1-------||-2-------------------------------||
|---------2---------------2-------||---------2---------------2-------||
|-0-------------------------------||-0---------------0---------------*|
|-----------------0---------------||---------------------------------||

>2|       |       |       |          |       |       |       |         
|----------------------------------|-5-------5-------3-------3--------|
|----------------------------------|-5-------5-------3-------3--------|
|-2--------------------------------|---------5---------------4--------|
|---------2---------------2--------|----------------------------------|
|-0---------------0----------------|----------------------------------|
|----------------------------------|-5---------------3----------------|

  |       |       |       |          |       |       |       |         
|-1-------1-------0----------------|----------------------------------|
|-1-------1-------0-------0--------|----------------------------------|
|---------2------------------------|-2-------2-------1-------1--------|
|-------------------------2--------|---------2---------------2--------|
|----------------------------------|-0--------------------------------|
|-1---------------0----------------|-----------------0----------------|

  |       |       |       |          |       |       |       |         
|----------------------------------|----------------------------------|
|----------------------------------|----------------------------------|
|-2-----------------------------0h-|-2-------2-------1-------1--------|
|---------2---------------2--------|---------2---------------2--------|
|-0--------------------------------|-0--------------------------------|
|-----------------0----------------|-----------------0----------------|

  |       |       |       |          |       |       |       |         
|----------------------------------|----------------------------------|
|----------------------------------|----------------------------------|
|-2-----------------------------0h-|-2-------2-------1-------1--------|
|---------2---------------2--------|---------2---------------2--------|
|-0--------------------------------|-0--------------------------------|
|-----------------0----------------|-----------------0----------------|

  |       |       |       |          |       |       |       |         
|----------------------------------|----------------------------------|
|----------------------------------|----------------------------------|
|-2--------------------------------|----------------------------------|
|-2--------------------------------|----------------------------------|
|-0--------------------------------|----------------------------------|
|----------------------------------|----------------------------------|