Download Options  Desktop Guitarist - MIDI  - TablEdit

Home        Back to previous page - Frames - No Frames

  

St Louis Blues


By H C Handy Arranged & TablEdited by Len Curle

Tuning : E A D G B E Time Signature: 4/4

 |       |       |       |        |       |       |       |        
|------3-3-------3-----3---------|------3-3-------3---------------|
|--------------4-----------------|--------------4---------4-------|
|--------5---------------5-------|--------5---------------5-------|
|--------------------------------|--------------------------------|
|3---------------3---------------|3---------------3---------------|
|--------------------------------|--------------------------------|

 |       |       |       |        |       |       |       |        
|--------------------------------|--------------------------------|
|3-------------------------------|--------3-----3-5-----3---------|
|--------------------------------|------4-------------------------|
|--------5---------------5-------|--------5---------------5-------|
|--------------------------------|--------------------------------|
|3---------------3---------------|3---------------3---------------|

 |       |       |       |        |       |       |       |        
|--------------------------------|----------------1---------------|
|--------3-----3-5-----3---------|1-------------------------------|
|------4-------------------------|--------0-----------------------|
|--------5---------------5-------|------------------------3-------|
|--------------------------------|3-------------------------------|
|3---------------3---------------|----------------1---------------|

 |       |       |       |        |       |       |       |        
|3-------------------------------|0-----3-0-----------------------|
|------------------------------1-|--------------1-----------------|
|--------------------------------|--------0---------------0-------|
|--------5---------------5-------|------------------------2-------|
|--------------------------------|3---------------3---------------|
|3---------------3---------------|--------------------------------|

 |       |       |       |        |       |       |       |        
|--------------------------------|--------------------------------|
|------1-3-----1-4-------3-------|1-------------------------------|
|2-------------------------------|--------------------------------|
|--------3-------4-------3-------|--------2-----------------------|
|--------------------------------|3-----------------------2-------|
|1-------------------------------|----------------3---------------|

 |       |       |       |        |       |       |       |        
|--------------------------------|--------------------------------|
|--------------------------------|--------1-------3-----1---------|
|--------0---------------0-------|------2-------2-----------------|
|--------------------------------|--------3---------------3-------|
|3---------------3---------------|--------------------------------|
|--------------------------------|1---------------1---------------|

 |       |       |       |        |       |       |       |        
|--------------------------------|--------------------------------|
|--------1-------4-------3-------|1-------------------------------|
|------2-------2-----------------|--------------------------------|
|--------3-------4-------3-------|--------2-----------------------|
|--------------------------------|3-----------------------2-------|
|1-------------------------------|----------------3---------------|

 |       |       |       |        |       |       |       |        
|--------------------------------|--------------------------------|
|--------------------------------|--------3-----3-5-----3---------|
|--------0---------------0-------|------4-------------------------|
|--------------------------------|--------5---------------5-------|
|3---------------3---------------|--------------------------------|
|--------------------------------|3---------------3---------------|

 |       |       |       |        |       |       |       |        
|--------------------------------|--------------------------------|
|--------3-----3-5-----3---------|1-------------------------------|
|------4-------------------------|--------------------------------|
|--------5---------------5-------|--------2-----------------------|
|--------------------------------|3-----------------------2-------|
|3---------------3---------------|----------------3---------------|

 |       |       |       |        |       |       |       |        
|------3-3-------3-----3---------|------3-3-------3---------------|
|--------------4-----------------|--------------4---------4-------|
|--------5---------------5-------|--------5---------------5-------|
|--------------------------------|--------------------------------|
|3---------------3---------------|3---------------3---------------|
|--------------------------------|--------------------------------|

 |       |       |       |        |       |       |       |        
|--------------------------------|--------------------------------|
|3-------------------------------|--------3-----3-5-----3---------|
|--------0---------------0-------|------4-------------------------|
|--------------------------------|--------5---------------5-------|
|--------------------------------|--------------------------------|
|3---------------3---------------|3---------------3---------------|

 |       |       |       |        |       |       |       |        
|--------------------------------|----------------1---------------|
|--------3-----3-5-----3---------|1-------------------------------|
|------4-------------------------|--------0-----------------------|
|--------5---------------5-------|------------------------3-------|
|--------------------------------|3-------------------------------|
|3---------------3---------------|----------------1---------------|

 |       |       |       |        |       |       |       |        
|3-----------------------------0-|--------------0---------------0-|
|------------------------4-------|1-------4-------1-------4-------|
|--------0-----------------------|--------------------------------|
|------------------------4-------|--------4---------------4-------|
|--------------------------------|3---------------3---------------|
|3---------------3---------------|--------------------------------|

 |       |       |       |        |       |       |       |        
|--------------0-----------------|--------------------------------|
|1-------4-------1-------3-------|1-------------------------------|
|--------------------------------|--------------------------------|
|--------4---------------3-------|--------2-----------------------|
|3---------------3---------------|3-----------------------2-------|
|--------------------------------|----------------3---------------|

 |       |       |       |        |       |       |       |        
|--------------------------------|--------------------------------|
|--------------------------------|--------1-------3-----1---------|
|--------0---------------0-------|------2-------2-----------------|
|--------------------------------|--------3---------------3-------|
|3---------------3---------------|--------------------------------|
|--------------------------------|1---------------1---------------|

 |       |       |       |        |       |       |       |        
|--------------------------------|--------------------------------|
|--------1-------4-------3-------|1-------------------------------|
|------2-------2-----------------|--------------------------------|
|--------3-------4-------3-------|--------2-----------------------|
|--------------------------------|3-----------------------2-------|
|1-------------------------------|----------------3---------------|

 |       |       |       |        |       |       |       |        
|--------------------------------|--------------------------------|
|--------------------------------|--------3-----3-5-----3---------|
|--------0---------------0-------|------4-------------------------|
|--------------------------------|--------5---------------5-------|
|3---------------3---------------|--------------------------------|
|--------------------------------|3---------------3---------------|

 |       |       |       |        |       |       |       |        
|--------------------------------|--------------------------------|
|--------3-----3-5-----3---------|1-------------------------------|
|------4-------------------------|--------------------------------|
|--------5---------------5-------|--------2-----------------------|
|--------------------------------|3-----------------------2-------|
|3---------------3---------------|----------------3---------------|

 |       |       |       |        |       |       |       |        
|0-------------------------------|--------------------------------|
|1-------------------------------|--------------------------------|
|--------------------------------|--------------------------------|
|--------------------------------|--------------------------------|
|3-------------------------------|--------------------------------|
|--------------------------------|--------------------------------|