Download Options   MIDI - TablEdit

Home        Back to previous page - Frames - No Frames

 

Sweet Home Chigago


By Robert Johnson Arranged and TablEdited by Len Curle

Tuning : F# B E A C# F# Time Signature: 12/8


 |     |     |     |      |     |     |     |      |     |     |     |      
|4---4-4---4-3---3-2---2-|0-----------2-----------|3/----4---4-4---4-------|
|--3---------------------|------0-----------------|----3-------------------|
|------------------------|----1-------------------|--4-4-------------------|
|------------------------|------------------------|------------------------|
|------------------------|------------2-----2-----|------------------------|
|0-----0-----0-----0-----|0-----0-----------------|0-----0-----0-----0-----|

 |     |     |     |      |     |     |     |      |     |     |     |      
|3---3-3---3-3-----------|3/----4---4-4---4-------|3---3-3---3-4-----------|
|--2---------------------|----3-------------------|----------------------2-|
|------------------------|--4---------------------|------------------------|
|------------------------|------------------------|------------------------|
|------------------------|------------------------|------------------------|
|0-----0-----0-----0-----|0-----0-----0-----0-----|0-----0-----0-----0-----|

 |     |     |     |      |     |     |     |      |     |     |     |      
|0-----------------------|3---3-3---2-0-----2-----|0-----------------------|
|------------------------|------------------------|----------------------0-|
|------------------------|------------------------|------------------------|
|------4b----2b----4b----|------------------------|------------------------|
|0-----0-----0-----0-----|0-----0-----0-----0-----|------4b----2b----4b----|
|------------------------|------------------------|0-----0-----0-----0-----|

 |     |     |     |      |     |     |     |      |     |     |     |      
|0-----------------------|0-----------------------|3---3-3---2-0-----2-----|
|----------------------2-|------------------------|------------------------|
|------------------------|------------------------|------------------------|
|------------------------|------4b----2b----4b----|------------------------|
|------4b----2b----4b----|0-----0-----0-----0-----|0-----0-----0-----0-----|
|0-----0-----0-----0-----|------------------------|------------------------|

 |     |     |     |      |     |     |     |      |     |     |     |      
|0-----------------------|0-----------------------|2-----2-----2---2-------|
|----------------------0-|----------------------2-|----------0-------------|
|------------------------|------------------------|------------------------|
|------------------------|------------------------|------------------------|
|------4b----2b----4b----|------4b----2b----4b----|2-----2-----2-----2-----|
|0-----0-----0-----0-----|0-----0-----0-----0-----|------------------------|

 |     |     |     |      |     |     |     |      |     |     |     |      
|2-----2-----3-----2-----|0-----4---4-0-----2-----|0-----------2-----------|
|----------0-------------|--------3-------2-----2-|------0-----------------|
|------------------------|------------------------|----1-------------------|
|------------------------|------------------------|------------------------|
|2-----2-----3-----2-----|------------------------|------------2-----2-----|
|------------------------|0-----0-----0-----0-----|0-----0-----------------|