Download Options  TablEdit - MIDI

Home        Back to previous page - Frames - No Frames

 

House Of The Rising Sun


Traditional
Arranged & TablEdited by Len Curle


Tuning : E A D G B E Time Signature: 4/4

 |       |       |       |        |       |       |       |        
|--------------------------------|0---------------------0---------|
|------------------------------0-|--------------------------------|
|--------------------------------|--------------------------------|
|--------2---------------2-------|--------2---------------2-------|
|--------------------------------|--------------------------------|
|0---------------0---------------|0---------------0---------------|

 |       |       |       |        |       |       |       |        
|--------------------------------|--------------------------------|
|3---------------------3---------|2-------------2h3-----2---------|
|--------------------------------|--------------------------------|
|--------0---------------0-------|--------2---------------2-------|
|--------------------------------|0---------------0---------------|
|3---------------3---------------|--------------------------------|

 |       |       |       |        |       |       |       |        
|--------------------------------|0-----------------------0-------|
|1-----------------------------1-|--------------------------------|
|--------------------------------|--------------------------------|
|--------2---------------2-------|--------2---------------2-------|
|3---------------3---------------|--------------------------------|
|--------------------------------|0---------------0---------------|

 |       |       |       |        |       |       |       |        
|--------------0-----------------|--------------------------------|
|3---------------------3---------|0-------------------------------|
|--------------------------------|--------------------------------|
|--------0---------------0-------|--------1---------------1-------|
|--------------------------------|2---------------2---------------|
|3---------------3---------------|--------------------------------|

 |       |       |       |        |       |       |       |        
|--------------------------------|0---------------------0---------|
|------------------------------0-|--------------------------------|
|--------------------------------|--------------------------------|
|--------1---------------1-------|--------2---------------2-------|
|2---------------2---------------|--------------------------------|
|--------------------------------|0---------------0---------------|

 |       |       |       |        |       |       |       |        
|--------------------------------|--------------------------------|
|3---------------------3---------|2-------------2h3-----2---------|
|--------------------------------|--------------------------------|
|--------0---------------0-------|--------2---------------2-------|
|--------------------------------|0---------------0---------------|
|3---------------3---------------|--------------------------------|

 |       |       |       |        |       |       |       |        
|--------------------------------|0-------------------------------|
|1-----------------------------1-|----------------0---------------|
|--------------------------------|--------------------------------|
|--------2---------------2-------|--------2---------------2-------|
|3---------------3---------------|--------------------------------|
|--------------------------------|0---------------0---------------|

 |       |       |       |        |       |       |       |        
|--------------------------------|--------------------------------|
|----------------0---------------|--------------------------------|
|2-------------------2-----------|--------------------------------|
|--------1---------------1-------|2-----------------------2-------|
|2---------------2---------------|--------2-----------------------|
|--------------------------------|0---------------0---------------|

 |       |       |       |        |       |       |       |        
|--------------------------------|--------------------------------|
|----------------0---------------|--------------------------------|
|2-------------------2-----------|--------------------------------|
|--------1---------------1-------|2-------------------------------|
|2---------------2---------------|--------2-----------------------|
|--------------------------------|0---------------0---------------|