Download Options  Desktop GuitaristMIDI - TablEdit

Home        Back to previous page - Frames - No Frames

 

In The Mood


By Joseph C. Garland Arranged & TablEdited by Len Curle



Tuning : E A D G B E Time Signature: 4/4

  |       |       |       |          |       |       |       |         
|---------0-------------0----------|-------0-------0---------0--------|
|-------0---------0----------------|-0-----------------------0--------|
|-1-------------1---------------1--|----------------------------------|
|---------2------------------------|---------2---------------2--------|
|-------------------------2--------|----------------------------------|
|-0---------------0----------------|-0---------------0----------------|

  |       |       |       |          |       |       |       |         
|---------0-------------0----------|-------0-------0---------0--------|
|-------0---------0----------------|-0-----------------------0--------|
|-1-------------1---------------1--|----------------------------------|
|---------2------------------------|---------2---------------2--------|
|-------------------------2--------|----------------------------------|
|-0---------------0----------------|-0---------------0----------------|

  |       |       |       |          |       |       |       |         
|---------0-------------0----------|-------0-------0---------0--------|
|-------2---------2----------------|-2-----------------------2--------|
|-2-------------2---------------2--|----------------------------------|
|---------2---------------2--------|---------2---------------2--------|
|-0---------------0----------------|-0---------------0----------------|
|----------------------------------|----------------------------------|

  |       |       |       |          |       |       |       |         
|---------0-------------0----------|-------0-------0---------0--------|
|-------0---------0----------------|-0-----------------------0--------|
|-1-------------1---------------1--|----------------------------------|
|---------2------------------------|---------2---------------2--------|
|-------------------------2--------|----------------------------------|
|-0---------------0----------------|-0---------------0----------------|

  |       |       |       |          |       |       |       |         
|---------2-------------2----------|-------2-------2---------2--------|
|-------0---------0----------------|-0-----------------------0--------|
|-2-------------2---------------2--|----------------------------------|
|---------1---------------1--------|---------1---------------1--------|
|-2---------------2----------------|-2---------------2----------------|
|----------------------------------|----------------------------------|

  |       |       |       |          |       |       |       |         
|---------0-------0-----0----------|-0-------0-----0------------------|
|-------0-0-------0-----0----------|-0-------0-----0------------------|
|----------------------------------|----------------------------------|
|---------2---------------2--------|---------2---------------2--------|
|----------------------------------|----------------------------------|
|-0---------------0----------------|-0---------------0----------------|

  |       |       |       |          |       |       |       |         
||0-------------0------------------|---------0-------2-----0----------|
|*--------2------------------------|-------0-------0------------------|
||---------------------------------|---------2---------------2--------|
||--------2---------------2--------|----------------------------------|
|*---------------------------------|-0---------------0----------------|
||0---------------0----------------|----------------------------------|

  |       |       |       |          |       |       |       |         
|-0-------------0------------------|---------0-------2-----0----------|
|---------2------------------------|-------0-------0------------------|
|----------------------------------|---------2---------------2--------|
|---------2---------------2--------|----------------------------------|
|----------------------------------|-0---------------0----------------|
|-0---------------0----------------|----------------------------------|

  |       |       |       |          |       |       |       |         
|-0-------------0------------------|---------0-------2-----0----------|
|---------2------------------------|-------0-------0------------------|
|----------------------------------|---------2---------------2--------|
|---------2---------------2--------|----------------------------------|
|----------------------------------|-0---------------0----------------|
|-0---------------0----------------|----------------------------------|

  |       |       |       |          |       |       |       |         
|---------2-------2-----2----------|-2-------2-----2---------2--------|
|-------0-0-------0-----0----------|-0-------0-----0---------0--------|
|----------------------------------|----------------------------------|
|---------1---------------1--------|---------1---------------1--------|
|-2---------------2----------------|-2---------------2----------------|
|----------------------------------|----------------------------------|

  |       |       |       |          |       |       |       |         
|---------0-------------0----------|-------0-------0---------0--------|
|-------0---------0----------------|-0-----------------------0--------|
|-1-------------1---------------1--|----------------------------------|
|---------2------------------------|---------2---------------2--------|
|-------------------------2--------|----------------------------------|
|-0---------------0----------------|-0---------------0----------------|

  |       |       |       |          |       |       |       |         
|---------0-------------0----------|-------0-------0---------0--------|
|-------0---------0----------------|-0-----------------------0--------|
|-1-------------1---------------1--|----------------------------------|
|---------2------------------------|---------2---------------2--------|
|-------------------------2--------|----------------------------------|
|-0---------------0----------------|-0---------------0----------------|

  |       |       |       |          |       |       |       |         
|---------0-------------0----------|-------0-------0---------0--------|
|-------2---------2----------------|-2-----------------------2--------|
|-2-------------2---------------2--|----------------------------------|
|---------2---------------2--------|---------2---------------2--------|
|-0---------------0----------------|-0---------------0----------------|
|----------------------------------|----------------------------------|

  |       |       |       |          |       |       |       |         
|---------0-------------0----------|-------0-------0---------0--------|
|-------0---------0----------------|-0-----------------------0--------|
|-1-------------1---------------1--|----------------------------------|
|---------2------------------------|---------2---------------2--------|
|-------------------------2--------|----------------------------------|
|-0---------------0----------------|-0---------------0----------------|

  |       |       |       |          |       |       |       |         
|---------2-------------2----------|-------2-------2---------2--------|
|-------0---------0----------------|-0-----------------------0--------|
|-2-------------2---------------2--|----------------------------------|
|---------1---------------1--------|---------1---------------1--------|
|-2---------------2----------------|-2---------------2----------------|
|----------------------------------|----------------------------------|

  |       |       |       |        >1|       |       |       |         
|---------0-------0-----0---------||-0-------0-----0-----------------||
|-------0-0-------0-----0---------||-0-------0-----0-----------------*|
|---------------------------------||---------------------------------||
|---------2---------------2-------||---------2---------------2-------||
|---------------------------------||---------------------------------*|
|-0---------------0---------------||-0---------------0---------------||

>2|       |       |       |          |       |       |       |         
|-0-------0-----0---------0--------|----------------------------------|
|-0-------0-----0---------0--------|----------------------------------|
|-------------------------1--------|----------------------------------|
|---------2---------------2--------|----------------------------------|
|-------------------------2--------|----------------------------------|
|-0---------------0-------0--------|----------------------------------|