Download Options  Desktop Guitarist - MIDI - TablEdit

Home        Back to previous page - Frames - No Frames

 

Mercededs Benz

By Janis Joplin Arranged & TablEdited by Len Curle

 

Tuning : E A D G B E Time Signature: 4/4

 |       |       |       |        |       |       |       |        
|--------------------------------|----0---------------------------|
|------------0-----------3-------|----------------3-------0-------|
|----0---------------------------|--------------------------------|
|--------0---------------0-------|--------0---------------0-------|
|--------------------------------|--------------------------------|
|3---------------3---------------|3---------------3---------------|

 |       |       |       |        |       |       |       |        
|--------------------------------|--------------------------------|
|----------------------------0---|--------------------------------|
|0---------------2---------------|----2-----------0---------------|
|--------0---------------0-------|--------0---------------0-------|
|--------------------------------|--------------------------------|
|3---------------2---------------|2---------------3---------------|

 |       |       |       |        |       |       |       |        
|--------------------------------|----0---------------------------|
|------------0-----------3-------|----------------3-------0-------|
|----0---------------------------|--------------------------------|
|--------0---------------0-------|--------0---------------0-------|
|--------------------------------|--------------------------------|
|3---------------3---------------|3---------------3---------------|

 |       |       |       |        |       |       |       |        
|--------------------------------|--------------------------------|
|--------------------------------|----0-----------3---------------|
|0-------0-------2-----------2---|--------------------------------|
|--------0---------------0-------|--------0---------------0-------|
|--------------------------------|--------------------------------|
|3---------------2---------------|2---------------2---------------|

 |       |       |       |        |       |       |       |        
|----0-----------3-----------0---|--------------------------------|
|--------------------------------|----3-----------0---------------|
|--------------------------------|----------------------------0---|
|--------0---------------0-------|--------0---------------0-------|
|--------------------------------|--------------------------------|
|2---------------3---------------|3---------------3---------------|

 |       |       |       |        |       |       |       |        
|--------------------------------|----0---------------------------|
|----------------1-----------3---|----------------3---------------|
|----0---------------------------|--------------------------------|
|--------0---------------2-------|--------2---------------0-------|
|----------------3---------------|3-------------------------------|
|3-------------------------------|----------------3---------------|

 |       |       |       |        |       |       |       |        
|--------------------------------|----0---------------------------|
|------------0-----------3-------|----------------3-------0-------|
|----0---------------------------|--------------------------------|
|--------0---------------0-------|--------0---------------0-------|
|--------------------------------|--------------------------------|
|3---------------3---------------|3---------------3---------------|

 |       |       |       |        |       |       |       |        
|--------------------------------|--------------------------------|
|----------------------------0---|--------------------------------|
|0---------------2---------------|----2-----------0---------------|
|--------0---------------0-------|--------0-------0---------------|
|--------------------------------|--------------------------------|
|3---------------2---------------|2---------------3---------------|