Download Options  MIDI - TablEdit

Home        Back to previous page - Frames - No Frames

 

Strolling Down The Highway

By Bert Janch
TablEdited and Arranged by Len Curle

Tuning : A D G C E A (capo at fifth fret using A chordshapes) Time Signature: 4/4

	

 |       |       |       |        |       |       |       |        
|--------------------------------|--------0-----0-------0---------|
|--------------------------------|2c--------------3c--------------|
|------------------------------2-|--------------------------------|
|--------------------------------|--------2---------------2-------|
|--------------------------------|0-------------------------------|
|--------------------------------|----------------0---------------|

 |       |       |       |        |       |       |       |        
|--------------------------------|--------------------------------|
|1p0p1-------------------0-------|--------------------------------|
|----------------------2---------|2-----------------------------2-|
|--------0---------------0-------|--------2---------------2-------|
|0---------------0---------------|0---------------0---------------|
|--------------------------------|--------------------------------|

 |       |       |       |        |       |       |       |        
|--------0-----0-------0---------|--------------------------------|
|2c--------------3c--------------|1p0p1-------------------0-------|
|--------------------------------|----------------------2---------|
|--------2---------------2-------|--------0---------------0-------|
|0-------------------------------|0---------------0---------------|
|----------------0---------------|--------------------------------|

 |       |       |       |        |       |       |       |        
|--------------------------------|2-------5-----5-3-----0---------|
|------------------------------3-|--------------------------------|
|2-------------------------------|--------------------------------|
|--------2---------------2-------|--------0---------------0-------|
|0---------------0---------------|0---------------0---------------|
|--------------------------------|--------------------------------|

 |       |       |       |        |       |       |       |        
|2-------------------------------|--------0-----0-------0---------|
|------3-------------------------|2c--------------3---------------|
|------------------------2-----2-|--------------------------------|
|--------0---------------0-------|--------2---------------2-------|
|0---------------0---------------|0-------------------------------|
|--------------------------------|----------------0---------------|

 |       |       |       |        |       |       |       |        
|--------------------------------|--------------------------------|
|2---------------------2-------0h|2---------------------2-------0h|
|------2---------------2-------0h|2---------------------2-------0h|
|--------2---------------2-------|--------2---------------2-------|
|0---------------0---------------|0---------------0---------------|
|--------------------------------|--------------------------------|

 |       |       |       |        |       |       |       |        
|--------------0-------0-------0-|--------------0-----------------|
|2-------------------------------|3-------------------------------|
|2-------------------------------|------------------------------0h|
|--------2---------------2-------|--------2---------------2-------|
|0---------------0---------------|--------------------------------|
|--------------------------------|0---------------0---------------|

 |       |       |       |        |       |       |       |        
|--------0-------------0---------|--------0-----------------------|
|------0-------3-----------------|------0-------3-----------------|
|1-----------------------------0h|1-----------------------------2-|
|--------2---------------2-------|--------2---------------2-------|
|--------------------------------|--------------------------------|
|0---------------0---------------|0---------------0---------------|

 |       |       |       |        |       |       |       |        
|--------0-----0-------0---------|--------------------------------|
|2c--------------3c--------------|1p0p1-------------------0-------|
|--------------------------------|----------------------2---------|
|--------2---------------2-------|--------0---------------0-------|
|0-------------------------------|0---------------0---------------|
|----------------0---------------|--------------------------------|

 |       |       |       |        |       |       |       |        
|--------------------------------|--------------------------------|
|--------------------------------|--------------------------------|
|2-------------------------------|--------------------------------|
|--------------------------------|--------------------------------|
|0-------------------------------|--------------------------------|
|--------------------------------|--------------------------------|