Download Options  TablEdit - MIDI - Tablature

Home        Back to previous page - Frames - No Frames

 

The Lady Is A Tramp


BY Richards and Hart
Arranged & TablEdited by Len Curle



Tuning : E A D G B E Time Signature: 4/4

 |       |       |       |        |       |       |       |        
|------2h3-------2-------5-------|--------------------------------|
|--------------------------------|6-------6-------------6---------|
|--------------------------------|--------------------------------|
|--------0---------------0-------|--------6---------------6-------|
|--------------------------------|--------------------------------|
|3---------------3---------------|6---------------6---------------|

 |       |       |       |        |       |       |       |        
|--------------------------------|2-------------------------------|
|5---------------------5---------|--------------------------------|
|--------------5-----------------|--------------------------------|
|--------5---------------5-------|--------0---------------0-------|
|--------------------------------|0---------------0---------------|
|5---------------5---------------|--------------------------------|

 |       |       |       |        |       |       |       |        
|------2h3-------2-------5-------|--------------------------------|
|--------------------------------|6-------6-------------6---------|
|--------------------------------|--------------------------------|
|--------0---------------0-------|--------6---------------6-------|
|--------------------------------|--------------------------------|
|3---------------3---------------|6---------------6---------------|

 |       |       |       |        |       |       |       |        
|--------------------------------|2-------------------------------|
|5---------------------5---------|--------------------------------|
|--------------5-----------------|--------------------------------|
|--------5---------------5-------|--------0---------------0-------|
|--------------------------------|0---------------0---------------|
|5---------------5---------------|--------------------------------|

 |       |       |       |        |       |       |       |        
|------3-------------------------|--------------------------------|
|----------------3---------------|--------------------------------|
|------------------------4-------|2-------2-------------2---------|
|--------5---------------5-------|--------0---------------0-------|
|--------------------------------|--------------------------------|
|3---------------3---------------|2---------------2---------------|

 |       |       |       |        |       |       |       |        
|--------------------------------|--------------------------------|
|----------------------0---------|1-------------------------------|
|0-------------2-----------------|--------0---------------0-------|
|--------0---------------0-------|--------------------------------|
|--------------------------------|3---------------3---------------|
|3---------------3---------------|--------------------------------|

 |       |       |       |        |       |       |       |        
|--------------------------------|--------------------------------|
|------0---------0-------0-------|--------------------------------|
|--------------------------------|2-------2-------2-----2---------|
|--------0---------------0-------|--------0---------------0-------|
|--------------------------------|--------------------------------|
|3---------------3---------------|2---------------2---------------|

 |       |       |       |        |       |       |       |        
|--------------------------------|--------------------------------|
|--------------------------------|----------------0-------3-------|
|0-------------------------------|------0-------------------------|
|--------0---------------0-------|--------0---------------0-------|
|--------------------------------|--------------------------------|
|3---------------3---------------|3---------------3---------------|

 |       |       |       |        |       |       |       |        
|0-------------------------------|2-------------------------------|
|--------------------------------|--------------------------------|
|--------------------------------|--------------------------------|
|--------2---------------2-------|--------0---------------0-------|
|3---------------3---------------|0---------------0---------------|
|--------------------------------|--------------------------------|

 |       |       |       |        |       |       |       |        
|2-------------------------------|0-------------------------------|
|----------------3---------------|--------------------------------|
|----------------------4---------|--------------------------------|
|--------4---------------4-------|--------2---------------2-------|
|2---------------2---------------|--------------------------------|
|--------------------------------|0---------------0---------------|

 |       |       |       |        |       |       |       |        
|--------0-----------------------|--------------------------------|
|----------------1---------------|3-------------------------------|
|----------------------2---------|--------------------------------|
|--------3---------------3-------|--------5---------------5-------|
|--------------------------------|--------------------------------|
|1---------------1---------------|3---------------3---------------|

 |       |       |       |        |       |       |       |        
|--------------------------------|--------2-------2---------------|
|--------5-------5---------------|--------------------------------|
|------6-------------------------|--------------------------------|
|--------5---------------5-------|--------0---------------0-------|
|--------------------------------|0---------------0---------------|
|5---------------5---------------|--------------------------------|

 |       |       |       |        |       |       |       |        
|------2h3-------2-------5-------|--------------------------------|
|--------------------------------|6-------6-------------6---------|
|--------------------------------|--------------------------------|
|--------0---------------0-------|--------6---------------6-------|
|--------------------------------|--------------------------------|
|3---------------3---------------|6---------------6---------------|

 |       |       |       |        |       |       |       |        
|--------------------------------|2-------------------------------|
|5---------------------5---------|--------------------------------|
|--------------5-----------------|--------------------------------|
|--------5---------------5-------|--------0---------------0-------|
|--------------------------------|0---------------0---------------|
|5---------------5---------------|--------------------------------|

 |       |       |       |        |       |       |       |        
|------3---------3-------3-------|5-------5-------5-----5---------|
|--------------------------------|--------------------------------|
|--------------------------------|--------5---------------5-------|
|--------5---------------5-------|--------------------------------|
|--------------------------------|5---------------5---------------|
|3---------------3---------------|--------------------------------|

 |       |       |       |        |       |       |       |        
|3-------------------------------|------3---------3-------3-------|
|--------------------------------|--------------------------------|
|--------------------------------|--------------------------------|
|--------5---------------5-------|--------5---------------5-------|
|--------------------------------|--------------------------------|
|3---------------3---------------|3---------------3---------------|

 |       |       |       |        |       |       |       |        
|5-------5-----------------------|------3---------3-------3-------|
|--------------------------------|--------------------------------|
|--------5---------------5-------|--------------------------------|
|--------------------------------|--------5---------------5-------|
|5---------------5---------------|--------------------------------|
|--------------------------------|3---------------3---------------|

 |       |       |       |        |       |       |       |        
|5-------5-----------------------|------3---------3-------3-------|
|--------------------------------|--------------------------------|
|--------5---------------5-------|--------------------------------|
|--------------------------------|--------5---------------5-------|
|5---------------5---------------|--------------------------------|
|--------------------------------|3---------------3---------------|

 |       |       |       |        |       |       |       |        
|5-------5-------5-----5---------|3-------------------------------|
|--------------------------------|--------------------------------|
|--------5---------------5-------|--------------------------------|
|--------------------------------|--------5---------------5-------|
|5---------------5---------------|--------------------------------|
|--------------------------------|3---------------3---------------|