Download Options  Desktop Guitarist - MIDI - TablEdit

Home        Back to previous page - Frames - No Frames

 

Washbash Cannonball


By William Kent  Arranged & TablEdited by Len Curle


Tuning : D A D G B E     Time Signature: 4/4

 

 |       |       |       |        |       |       |       |        
|5-----------5-------------------|----------------7---5-----------|
|7-----------7-------------------|--------------------------------|
|--------------------------------|--------------------------------|
|--------0---------------0-------|--------0---------------0-------|
|--------------------------------|--------------------------------|
|0---------------0---------------|0---------------0---------------|

 |       |       |       |        |       |       |       |        
|5-----------5-------------------|----------------7---5-----------|
|7-----------7-------------------|--------------------------------|
|--------------------------------|--------------------------------|
|--------0---------------0-------|--------0---------------0-------|
|--------------------------------|--------------------------------|
|0---------------0---------------|0---------------0---------------|

 |       |       |       |        |       |       |       |        
|5-----------5-------------------|----------------7---5-----------|
|7-----------7-------------------|--------------------------------|
|--------------------------------|--------------------------------|
|--------0---------------0-------|--------0---------------0-------|
|--------------------------------|--------------------------------|
|0---------------0---------------|0---------------0---------------|

 |       |       |       |        |       |       |       |        
|2-------------------------------|--------------------0-----------|
|3-------------------------------|------------3-------------------|
|--------------------------------|2---2---------------------------|
|--------0---------------0-------|--------0---------------0-------|
|--------------------------------|--------------------------------|
|0---------------0---------------|0---------------0---------------|

 |       |       |       |        |       |       |       |        
|0h2-------------5---------------|5-----------5---2---------------|
|--------------------------------|------------------------3-------|
|--------------------------------|--------------------------------|
|--------0---------------0-------|--------0---------------0-------|
|--------------------------------|--------------------------------|
|0---------------0---------------|0---------------0---------------|

 |       |       |       |        |       |       |       |        
|--------------------------------|------------------------0-------|
|--------------------------------|----------------2---------------|
|0-------------------------------|2-----------2-------------------|
|--------0---------------0-------|--------2---------------2-------|
|--------------------------------|0---------------0---------------|
|0---------------0---------------|--------------------------------|

 |       |       |       |        |       |       |       |        
|2-------0-----------------------|--------------------------------|
|----------------2---------------|2-----------2---2-------0-------|
|--------------------------------|--------------------------------|
|--------2---------------2-------|--------2---------------0-------|
|0---------------0---------------|0---------------0---------------|
|--------------------------------|--------------------------------|

 |       |       |       |        |       |       |       |        
|--------------------------------|--------------------0-----------|
|--------------------------------|------------3-------------------|
|2-------------------------------|2---2---------------------------|
|--------0---------------0-------|--------0---------------0-------|
|--------------------------------|--------------------------------|
|0---------------0---------------|0---------------0---------------|

 |       |       |       |        |       |       |       |        
|0h2-------------5---------------|5-----------5---2---------------|
|--------------------------------|------------------------3-------|
|--------------------------------|--------------------------------|
|--------0---------------0-------|--------0---------------0-------|
|--------------------------------|--------------------------------|
|0---------------0---------------|0---------------0---------------|

 |       |       |       |        |       |       |       |        
|--------------------------------|------------------------0-------|
|--------------------------------|----------------2---------------|
|0-------------------------------|2-----------2-------------------|
|--------0---------------0-------|--------2---------------2-------|
|--------------------------------|0---------------0---------------|
|0---------------0---------------|--------------------------------|

 |       |       |       |        |       |       |       |        
|2-------0-----------------------|--------------------------------|
|----------------2---------------|----------------0---2-----------|
|------------------------2-------|2-------2-----------------------|
|--------2---------------2-------|--------2---------------0-------|
|0---------------0---------------|0---------------0---------------|
|--------------------------------|--------------------------------|

 |       |       |       |        |       |       |       |        
|--------------------------------|--------------------------------|
|3-------------------------------|----------------7---5-----------|
|--------------------------------|--------------------------------|
|--------0---------------0-------|--------0---------------0-------|
|--------------------------------|--------------------------------|
|0---------------0---------------|0---------------0---------------|

 |       |       |       |        |       |       |       |        
|--------------------------------|--------------------------------|
|3-------------------------------|--------------------------------|
|--------------------------------|--------------------------------|
|--------------------------------|--------------------------------|
|--------------------------------|--------------------------------|
|0-------------------------------|--------------------------------|