Download Options  TablEdit - MIDI - Tablature

Home        Back to previous page - Frames - No Frames

 

What You Gonna Do
Arranged & TablEdited by Len Curle


Tuning : D A D G B E Time Signature: 4/4

         
 |       |       |       |        |       |       |       |        
|--------------------------------|--------------------------------|
|--------------------------------|----0-----------3-------3-------|
|--------------------------------|2-----------2-------------------|
|--------0---------------0-------|--------0---------------0-------|
|--------------------------------|--------------------------------|
|0---------------0---------------|0---------------0---------------|

 |       |       |       |        |       |       |       |        
|--------------------------------|--------------------------------|
|3---3-----------0---------------|----0-----------3---------------|
|------------------------2-------|2-------------------------------|
|--------0---------------0-------|--------0---------------0-------|
|--------------------------------|--------------------------------|
|0---------------0---------------|0---------------0---------------|

 |       |       |       |        |       |       |       |        
|--------------------------------|----2-----------5---------------|
|--------------------------------|3---------------------------6---|
|--------------------------------|--------------------------------|
|--------0---------------0-------|--------0---------------0-------|
|--------------------------------|--------------------------------|
|0---------------0---------------|0---------------0---------------|

 |       |       |       |        |       |       |       |        
|----5-----------7-------5-------|7---5-----------2---------------|
|--------------------------------|--------------------------------|
|--------------------------------|--------------------------------|
|--------0---------------0-------|--------0---------------0-------|
|--------------------------------|--------------------------------|
|0---------------0---------------|0---------------0---------------|

 |       |       |       |        |       |       |       |        
|--------------------------------|----2-----------5---------------|
|--------------------------------|3---------------------------6---|
|--------------------------------|--------------------------------|
|--------0---------------0-------|--------0---------------0-------|
|--------------------------------|--------------------------------|
|0---------------0---------------|0---------------0---------------|

 |       |       |       |        |       |       |       |        
|----5-----------7-------5-------|----------------3---------------|
|--------------------------------|6---------------------------3---|
|--------------------------------|--------------------------------|
|--------0---------------0-------|--------0---------------0-------|
|--------------------------------|--------------------------------|
|0---------------0---------------|0---------------0---------------|

 |       |       |       |        |       |       |       |        
|----3-----------5-------3-------|----------------2---------------|
|--------------------------------|3---------------------------3---|
|--------------------------------|--------------------------------|
|--------0---------------0-------|--------0---------------0-------|
|--------------------------------|--------------------------------|
|0---------------0---------------|0---------------0---------------|

 |       |       |       |        |       |       |       |        
|----2-----------0---------------|--------------------------------|
|------------------------0-------|--------0-------3---------------|
|--------------------------------|2-------------------------------|
|--------0---------------0-------|--------0---------------0-------|
|--------------------------------|--------------------------------|
|0---------------0---------------|0---------------0---------------|