Download Options  MIDI - TablEdit

Home        Back to previous page - Frames - No Frames

 

Concourse

By Len Curle

Tuning : E A D G B E     Time Signature: 4/4

  |       |       |       |          |       |       |       |         
|---------4---------------4--------|-2---------------4-------2--------|
|---------5-------------5----------|-3--------------------------------|
|---------4---------------4--------|-2---------------4-------2--------|
|----------------------------------|----------------------------------|
|----------------------------------|----------------------------------|
|-0--------------------------------|----------------------------------|

  |       |       |       |          |       |       |       |         
|---------0---------------0--------|---------0---------------0--------|
|-------0---------2----------------|-------0---------2----------------|
|----------------------------------|---------------1------------------|
|---------2---------------2--------|---------2---------------2--------|
|-----------------0----------------|-----------------0----------------|
|-0--------------------------------|-0--------------------------------|

  |       |       |       |          |       |       |       |         
|---------0---------------0-----2/-|-4-------2-------0----------------|
|-----------------2----------------|----------------------------------|
|-------------------------------2/-|-4-------2------------------------|
|---------2---------------2--------|-------------------------2--------|
|-----------------0----------------|----------------------------------|
|-0--------------------------------|-----------------0----------------|

  |       |       |       |          |       |       |       |         
||---------------------------------|----------------------------------|
|*--------0-------0-------2--------|---------0-------0-------2--------|
||------1--------------------------|----------------------------------|
||--------2------------------------|---------2------------------------|
|*------------------------0--------|-------------------------0--------|
||0---------------3----------------|-0---------------3----------------|

  |       |       |       |          |       |       |       |         
|----------------------------------|----------------------------------|
|---------0-------0-------2--------|---------0-------0-------2--------|
|-------1-------0------------------|----------------------------------|
|---------2------------------------|---------2------------------------|
|-------------------------0--------|-------------------------0--------|
|-0---------------3----------------|-0---------------3----------------|

  |       |       |       |          |       |       |       |         
|---------0------------------------|---------0------------------------|
|-----------------2-------0--------|-------0-------0-2-------0--------|
|---------0------------------------|---------0------------------------|
|-----------------2-------0--------|-----------------2-------0--------|
|----------------------------------|----------------------------------|
|-0--------------------------------|-0--------------------------------|

  |       |       |       |          |       |       |       |         
|---------0---------------------2/-|-4-------2-------0----------------|
|-----------------2-------0--------|----------------------------------|
|---------0---------------------2/-|-4-------2------------------------|
|-----------------2-------0--------|-------------------------2--------|
|----------------------------------|----------------------------------|
|-0--------------------------------|-----------------0----------------|

  |       |       |       |          |       |       |       |         
||--------4---------------4--------|-2---------------4-------2--------|
|*--------5-------------5----------|-3--------------------------------|
||--------4---------------4--------|-2---------------4-------2--------|
||---------------------------------|----------------------------------|
|*---------------------------------|----------------------------------|
||0--------------------------------|----------------------------------|

  |       |       |       |          |       |       |       |         
|-0-------0---------------0--------|---------0---------------0--------|
|-------0---------2----------------|-------0---------2----------------|
|----------------------------------|---------------1------------------|
|---------2---------------2--------|---------2---------------2--------|
|-----------------0----------------|-----------------0----------------|
|-0--------------------------------|-0--------------------------------|

  |       |       |       |          |       |       |       |         
|---------4---------------4--------|-7---------------4-------7--------|
|---------5-------------5----------|-8---------------5-------8--------|
|---------4---------------4--------|-7---------------4-------7--------|
|----------------------------------|----------------------------------|
|----------------------------------|----------------------------------|
|-0--------------------------------|----------------------------------|

  |       |       |       |          |       |       |       |         
|-4-----------------------0--------|---------0---------------0--------|
|-5-----5---------2----------------|-------0---------2----------------|
|-4-------4---------------0--------|---------------1------------------|
|-----------------2----------------|---------2---------------2--------|
|----------------------------------|-----------------0----------------|
|----------------------------------|-0--------------------------------|

  |       |       |       |          |       |       |       |         
|---------0---------------0-----2/-|-4-------2-------0---------------||
|-----------------2----------------|---------------------------------*|
|-------------------------------2/-|-4-------2-----------------------||
|---------2---------------2--------|-------------------------2-------||
|-----------------0----------------|---------------------------------*|
|-0--------------------------------|-----------------0---------------||

  |       |       |       |          |       |       |       |         
|---------0-------3-------0--------|---------0---------------0--------|
|-------0-------0------------------|-2---------------0----------------|
|----------------------------------|----------------------------------|
|---------2---------------2--------|---------2---------------2--------|
|----------------------------------|-0---------------2----------------|
|-0---------------3----------------|----------------------------------|

  |       |       |       |          |       |       |       |         
|---------0-------3-------0--------|---------0-------0----------------|
|-------0-------0------------------|-2--------------------------------|
|----------------------------------|----------------------------------|
|---------2---------------2--------|---------2---------------2--------|
|----------------------------------|-0--------------------------------|
|-0---------------3----------------|-----------------0----------------|

  |       |       |       |          |       |       |       |         
|---------0-------3-------0--------|---------0---------------0--------|
|-------0-------0------------------|-2---------------0----------------|
|----------------------------------|----------------------------------|
|---------2---------------2--------|---------2---------------2--------|
|----------------------------------|-0---------------2----------------|
|-0---------------3----------------|----------------------------------|

  |       |       |       |          |       |       |       |         
|---------0-------3-------0--------|---------0-------0---------------||
|-------0-------0------------------|-2-------------------------------*|
|----------------------------------|---------------------------------||
|---------2---------------2--------|---------2---------------2-------||
|----------------------------------|-0-------------------------------*|
|-0---------------3----------------|-----------------0---------------||

  |       |       |       |          |       |       |       |         
|---------0---------------0--------|---------0---------------0--------|
|-----------------2----------------|-------0---------2----------------|
|----------------------------------|---------------1------------------|
|---------2---------------2--------|---------2---------------2--------|
|-----------------0----------------|-----------------0----------------|
|-0--------------------------------|-0--------------------------------|

  |       |       |       |          |       |       |       |         
|---------0---------------0-----2/-|-4---------------2----------------|
|-----------------2----------------|----------------------------------|
|-------------------------------2/-|-4---------------2----------------|
|---------2---------------2--------|----------------------------------|
|-----------------0----------------|----------------------------------|
|-0--------------------------------|----------------------------------|

  |       |       |       |          |       |       |       |         
|-0--------------------------------|----------------------------------|
|----------------------------------|----------------------------------|
|----------------------------------|----------------------------------|
|----------------------------------|----------------------------------|
|----------------------------------|----------------------------------|
|-0--------------------------------|----------------------------------|