Download Options  MIDI - TablEdit

Home        Back to previous page - Frames - No Frames

 

Dillon's Jump


By Len Curle

Tuning : F# B E A C# F# (capo at second fret using C chordshapes) Time Signature: 4/4

 |       |       |       |        |       |       |       |        
|------0-------------------------|------0-------3-----------------|
|4-------------1-----------------|4-------------------------------|
|--------0-----------------------|--------0-----------------------|
|4-----------------------2-------|4-----------------------2-------|
|----------------3---------------|----------------3---------------|
|--------------------------------|--------------------------------|

 |       |       |       |        |       |       |       |        
|------0---------3-----0---------|------0-------------------------|
|4-------------1-----------------|4---------------1---------------|
|--------0-----------------------|--------0---------------0-------|
|4-----------------------2-------|4-----------------------2-------|
|----------------3---------------|----------------3---------------|
|--------------------------------|--------------------------------|

 |       |       |       |        |       |       |       |        
|--------------------------------|--------------------------------|
|--------1-------1---------------|------1---------1---------------|
|2-------------------------------|2-------------2---------2-------|
|--------3---------------3-------|--------3---------------3-------|
|--------------------------------|--------------------------------|
|1---------------1---------------|1---------------1---------------|

 |       |       |       |        |       |       |       |        
|----------------------0---------|--------------------------------|
|----------------4---------------|1-------------------------------|
|0-----------------------0-------|--------------------------------|
|--------2-------4---------------|--------2---------------2-------|
|3-------------------------------|3---------------3---------------|
|--------------------------------|--------------------------------|

 |       |       |       |        |       |       |       |        
|--------------------------------|--------------------------------|
|3-------3-------3---------------|0-----3-------0-3/--4---3-------|
|4-------4-------4-------0-------|--------0---------------0-------|
|--------5-----------------------|--------------------------------|
|--------------------------------|--------------------------------|
|3---------------3---------------|3---------------3/--4-----------|

 |       |       |       |        |       |       |       |        
|----------------0---------------|--------------------------------|
|1-----------------------3-------|1-------------------------------|
|----------------0---------------|--------------------------------|
|--------2---------------3-------|--------2---------------2-------|
|3-------------------------------|3---------------3---------------|
|--------------------------------|--------------------------------|

 |       |       |       |        |       |       |       |        
|3/--5---3-------0---------------|3/--5---3-------0---------------|
|----------------------1---------|--------------------------------|
|3/--5---3-------0---------------|3/--5---3---------------0-------|
|--------------------------------|--------------------------------|
|------------------------3-------|----------------3---------------|
|--------------------------------|--------------------------------|

 |       |       |       |        |       |       |       |        
|3/--5---3-------0---------------|------0-------------------------|
|----------------------1---------|4---------------1---------------|
|3/--5---3-------0---------------|--------0---------------0-------|
|--------------------------------|4-----------------------2-------|
|------------------------3-------|----------------3---------------|
|--------------------------------|--------------------------------|

 |       |       |       |        |       |       |       |        
|--------------------------------|--------------------------------|
|------1---------1---------------|------1---------1---------------|
|2-------------------------------|2-------------2---------2-------|
|--------3---------------3-------|--------3---------------3-------|
|--------------------------------|--------------------------------|
|1---------------1---------------|1---------------1---------------|

 |       |       |       |        |       |       |       |        
|----------------------0---------|--------------------------------|
|----------------4---------------|1-------------------------------|
|0-----------------------0-------|--------------------------------|
|--------2-------4---------------|--------2---------------2-------|
|3-------------------------------|3---------------3---------------|
|--------------------------------|--------------------------------|

 |       |       |       |        |       |       |       |        
|--------------------------------|--------------------------------|
|3-------3-------3---------------|0-----3-------0-3h----5-3-------|
|4-------4-------4-------0-------|--------0---------------0-------|
|--------5-----------------------|--------------------------------|
|--------------------------------|--------------------------------|
|3---------------3---------------|3---------------3/--------------|

 |       |       |       |        |       |       |       |        
|----------------0---------------|--------------------------------|
|1-----------------------3-------|1-------------------------------|
|----------------0---------------|--------------------------------|
|--------2---------------3-------|--------2---------------2-------|
|3-------------------------------|3---------------3---------------|
|--------------------------------|--------------------------------|