Download Options  Desktop Guitarist - MIDI - TablEdit

Home        Back to previous page - Frames - No Frames

 

Freefall
By Len Curle

Tuning : E A D G B E Time Signature: 4/4

  |       |       |       |          |       |       |       |         
|-4-----------4--------------------|-4-----------4--------------------|
|-----5---------------5------------|-----5---------------5------------|
|---------4---------------4--------|---------4---------------4--------|
|----------------------------------|----------------------------------|
|----------------------------------|----------------------------------|
|-0---------------0----------------|-0---------------0----------------|

  |       |       |       |          |       |       |       |         
|-2-----------2--------------------|-0-----------0--------------------|
|-----3---------------3------------|-----0---------------0------------|
|---------2---------------2--------|---------1---------------1--------|
|----------------------------------|----------------------------------|
|----------------------------------|----------------------------------|
|-0---------------0----------------|-0---------------0----------------|

  |       |       |       |          |       |       |       |         
|-4-----------4--------------------|-4-----------4--------------------|
|-----5---------------5------------|-----5---------------5------------|
|---------4---------------4--------|---------4---------------4--------|
|----------------------------------|----------------------------------|
|----------------------------------|----------------------------------|
|-0---------------0----------------|-0---------------0----------------|

  |       |       |       |          |       |       |       |         
|-2-----------2--------------------|-0-----------0--------------------|
|-----3---------------3------------|-----0---------------0------------|
|---------2---------------2--------|---------1---------------1--------|
|----------------------------------|----------------------------------|
|----------------------------------|----------------------------------|
|-0---------------0----------------|-0---------------0----------------|

  |       |       |       |          |       |       |       |         
||9-----------9--------------------|-9-----------9--------------------|
|*----10--------------10-----------|-----10--------------10-----------|
||--------9---------------9--------|---------9---------------9--------|
||---------------------------------|----------------------------------|
|*---------------------------------|----------------------------------|
||0---------------0----------------|-0---------------0----------------|

  |       |       |       |          |       |       |       |         
|-4-----------4--------------------|-0-----------0--------------------|
|-----5---------------5------------|-----0---------------0------------|
|---------4---------------4--------|---------1---------------1--------|
|----------------------------------|----------------------------------|
|----------------------------------|----------------------------------|
|-0---------------0----------------|-0---------------0----------------|

  |       |       |       |          |       |       |       |         
|-9-----------9--------------------|-9-----------9--------------------|
|-----10--------------10-----------|-----10--------------10-----------|
|---------9---------------9--------|---------9---------------9--------|
|----------------------------------|----------------------------------|
|----------------------------------|----------------------------------|
|-0---------------0----------------|-0---------------0----------------|

  |       |       |       |          |       |       |       |         
|-4-----------4--------------------|-0-----------0--------------------|
|-----5---------------5------------|-----0---------------0------------|
|---------4---------------4--------|---------1---------------1--------|
|----------------------------------|----------------------------------|
|----------------------------------|----------------------------------|
|-0---------------0----------------|-0---------------0----------------|

  |       |       |       |          |       |       |       |         
|-4-----------4--------------------|-4-----------4--------------------|
|-----5---------------5------------|-----5---------------5------------|
|---------4---------------4--------|---------4---------------4--------|
|----------------------------------|----------------------------------|
|----------------------------------|----------------------------------|
|-0---------------0----------------|-0---------------0----------------|

  |       |       |       |          |       |       |       |         
|-2-----------2--------------------|-0-----------0--------------------|
|-----3---------------3------------|-----0---------------0------------|
|---------2---------------2--------|---------1---------------1--------|
|----------------------------------|----------------------------------|
|----------------------------------|----------------------------------|
|-0---------------0----------------|-0---------------0----------------|

  |       |       |       |          |       |       |       |         
|-4-----------4--------------------|-4-----------4--------------------|
|-----5---------------5------------|-----5---------------5------------|
|---------4---------------4--------|---------4---------------4--------|
|----------------------------------|----------------------------------|
|----------------------------------|----------------------------------|
|-0---------------0----------------|-0---------------0----------------|

  |       |       |       |          |       |       |       |         
|-2-----------2-------------------||-0--------------------------------|
|-----3---------------3-----------*|-0--------------------------------|
|---------2---------------2-------||-1--------------------------------|
|---------------------------------||-2--------------------------------|
|---------------------------------*|-2--------------------------------|
|-0---------------0---------------||-0--------------------------------|