Download Options  Desktop Guitarist - MIDI - TablEdit

Home        Back to previous page - Frames - No Frames

 

Jackpot
By Len Curle

Tuning : E A D G B E Time Signature: 4/4

 |       |       |       |        |       |       |       |        
|--------------------------------|--------------------------------|
|----0-----------3-------0-------|----0---------------------------|
|3-----------3-------------------|3---------------0---------------|
|--------0---------------0-------|--------0---------------0-------|
|--------------------------------|--------------------------------|
|3---------------3---------------|3---------------3---------------|

 |       |       |       |        |       |       |       |        
|--------------------------------|--------------------------------|
|----0-----------3-------0-------|----0---------------------------|
|3-----------3-------------------|3---------------0-------0-------|
|--------0---------------0-------|--------0---------------0-------|
|--------------------------------|--------------------------------|
|3---------------3---------------|3---------------3---------------|

 |       |       |       |        |       |       |       |        
|--------------------------------|--------------------------------|
|--------------------------------|----1-----------1---------------|
|0-------0-------0-------0-------|3-----------3-----------3-------|
|--------2---------------2-------|--------2---------------2-------|
|3---------------3---------------|3---------------3---------------|
|--------------------------------|--------------------------------|

 |       |       |       |        |       |       |       |        
|--------------------------------|--------------------------------|
|--------------------0-----------|--------------------------------|
|0---------------3---------------|0---------------5-------5-------|
|--------0---------------0-------|--------0---------------4-------|
|--------------------------------|----------------5---------------|
|3---------------3---------------|3-------------------------------|

 |       |       |       |        |       |       |       |        
|--------------------------------|--------------------------------|
|--------------------3-----------|3-------------------------------|
|5---------------5-----------5---|--------5-------0---------------|
|--------4---------------4-------|--------4---------------0-------|
|5---------------5---------------|5-------------------------------|
|--------------------------------|----------------3---------------|

 |       |       |       |        |       |       |       |        
|--------------------------------|3-------0-----------0-----------|
|----0---------------------------|----------------3---------------|
|3---------------0---------------|--------------------------------|
|--------0---------------0-------|--------0---------------0-------|
|--------------------------------|--------------------------------|
|3---------------3---------------|3---------------3---------------|

 |       |       |       |        |       |       |       |        
|3-------0-----------0-----------|3-------0-----------0-----------|
|----------------3---------------|----------------3---------------|
|--------------------------------|--------------------------------|
|--------0---------------0-------|--------0---------------0-------|
|--------------------------------|--------------------------------|
|3---------------3---------------|3---------------3---------------|

 |       |       |       |        |       |       |       |        
|--------------------------------|3-------0-----------0-----------|
|----0---------------------------|----------------3---------------|
|3---------------0---------------|--------------------------------|
|--------0---------------0-------|--------0---------------0-------|
|--------------------------------|--------------------------------|
|3---------------3---------------|3---------------3---------------|

 |       |       |       |        |       |       |       |        
|3-------0-----------0-----------|3-------0-----------0-----------|
|----------------3---------------|----------------3---------------|
|--------------------------------|--------------------------------|
|--------0---------------0-------|--------0---------------0-------|
|--------------------------------|--------------------------------|
|3---------------3---------------|3---------------3---------------|

 |       |       |       |        |       |       |       |        
|--------------------------------|--------------------------------|
|----0---------------------------|--------------------------------|
|3---------------0---------------|0-------0-------0-------0-------|
|--------0---------------0-------|--------2---------------2-------|
|--------------------------------|3---------------3---------------|
|3---------------3---------------|--------------------------------|

 |       |       |       |        |       |       |       |        
|--------------------------------|--------------------------------|
|----1-----------1---------------|--------------------0-----------|
|3-----------3-----------3-------|0---------------3---------------|
|--------2---------------2-------|--------0---------------0-------|
|3---------------3---------------|--------------------------------|
|--------------------------------|3---------------3---------------|

 |       |       |       |        |       |       |       |        
|--------------------------------|--------------------------------|
|--------------------------------|--------------------3-----------|
|0---------------5-------5-------|5---------------5-----------5---|
|--------0-------0-------4-------|--------4---------------4-------|
|--------------------------------|5---------------5---------------|
|3-------------------------------|--------------------------------|

 |       |       |       |        |       |       |       |        
|--------------------------------|--------------------------------|
|3-------------------------------|----0---------------------------|
|--------5-------0---------------|3---------------0---------------|
|--------4---------------0-------|--------0---------------0-------|
|5-------------------------------|--------------------------------|
|----------------3---------------|3---------------3---------------|

 |       |       |       |        |       |       |       |        
|--------------------------------|--------------------------------|
|----0-----------3-------0-------|----0---------------------------|
|3-----------3-------------------|3---------------0---------------|
|--------0---------------0-------|--------0---------------0-------|
|--------------------------------|--------------------------------|
|3---------------3---------------|3---------------3---------------|

 |       |       |       |        |       |       |       |        
|--------------------------------|--------------------------------|
|----0-----------3-------0-------|----0---------------------------|
|3-----------3-------------------|3---------------0-------0-------|
|--------0---------------0-------|--------0---------------0-------|
|--------------------------------|--------------------------------|
|3---------------3---------------|3---------------3---------------|

 |       |       |       |        |       |       |       |        
|--------------------------------|--------------------------------|
|--------------------------------|----1-----------1---------------|
|0-------0-------0-------0-------|3-----------3-----------3-------|
|--------2---------------2-------|--------2---------------2-------|
|3---------------3---------------|3---------------3---------------|
|--------------------------------|--------------------------------|

 |       |       |       |        |       |       |       |        
|--------------------------------|--------------------------------|
|--------------------0-----------|--------------------------------|
|0---------------3---------------|0---------------5-------5-------|
|--------0---------------0-------|--------0---------------4-------|
|--------------------------------|----------------5---------------|
|3---------------3---------------|3-------------------------------|

 |       |       |       |        |       |       |       |        
|--------------------------------|--------------------------------|
|--------------------3-----------|3-------------------------------|
|5---------------5-----------5---|--------5-------0---------------|
|--------4---------------4-------|--------4---------------0-------|
|5---------------5---------------|5-------------------------------|
|--------------------------------|----------------3---------------|

 |       |       |       |        |       |       |       |        
|--------------------------------|3-------------------------------|
|----0---------------------------|3-------------------------------|
|3---------------0---------------|--------------------------------|
|--------0---------------0-------|--------------------------------|
|--------------------------------|--------------------------------|
|3---------------3---------------|3-------------------------------|