Download Options  MIDI - TablEdi

Home        Back to previous page - Frames - No Frames

 

Kelly's Jump
By Len Curle


Tuning : F# B E A C# F# Time Signature: 4/4

  |       |       |       |          |       |       |       |         
|----------------------------------||----------------0-------2-----2/-|
|----------------------------------|*0-------2------------------------|
|-------------------------------1--||----------------0-------2-----2/-|
|----------------------------------||--------2------------------------|
|----------------------------------|*---------------------------------|
|----------------------------------||0--------------------------------|

  |       |       |       |          |       |       |       |         
|-------------------------------2/-|-4-----4---------2-------4--------|
|---------0-------2----------------|----------------------------------|
|-------------------------0-----2/-|-4-------4-------2-------4--------|
|---------0-------2----------------|----------------------------------|
|----------------------------------|----------------------------------|
|----------------------------------|----------------------------------|

  |       |       |       |          |       |       |       |         
|-0--------------------------------|-2-------2-------2----------------|
|----------------------------------|----------------------------------|
|----------------------------------|---------2---------------2--------|
|---------2---------------2--------|----------------------------------|
|----------------------------------|-2---------------2----------------|
|-0---------------0----------------|----------------------------------|

  |       |       |       |          |       |       |       |         
|-2-------------2/4-------2--------|-0---------------------0----------|
|-------0--------------------------|-----------------2----------------|
|---------2-----2/4-------2--------|----------------------------------|
|----------------------------------|---------2---------------2--------|
|-2--------------------------------|-----------------0----------------|
|----------------------------------|-0--------------------------------|

  |       |       |       |          |       |       |       |         
|-0--------------------------------|---------0-------0----------------|
|----------------------------------|-2--------------------------------|
|----------------------------------|----------------------------------|
|---------2---------------2--------|---------2---------------2--------|
|----------------------------------|-0---------------0----------------|
|-0---------------0----------------|----------------------------------|

  |       |       |       |          |       |       |       |         
|-------0---------2----------------|-----------------------0----------|
|-2-------------2---------2--------|-0---------------2----------------|
|-----------------2----------------|----------------------------------|
|---------2---------------2--------|---------2---------------2--------|
|-0--------------------------------|-----------------0----------------|
|----------------------------------|-0--------------------------------|

  |       |       |       |          |       |       |       |         
|----------------------------------|-2-------2-------2----------------|
|-0--------------------------------|----------------------------------|
|----------------------------------|---------2---------------2--------|
|---------2---------------2--------|----------------------------------|
|----------------------------------|-2---------------2----------------|
|-0---------------0----------------|----------------------------------|

  |       |       |       |          |       |       |       |         
|-2-------------2/4-------2--------|-0---------------------0----------|
|-------0--------------------------|-----------------2----------------|
|---------2-----2/4-------2--------|----------------------------------|
|----------------------------------|---------2---------------2--------|
|-2--------------------------------|-----------------0----------------|
|----------------------------------|-0--------------------------------|

  |       |       |       |          |       |       |       |         
|-0--------------------------------|-2/4---------------------0--------|
|----------------------------------|---------0-------2----------------|
|----------------------------------|-2/4---------------------0--------|
|---------2---------------2--------|---------0-------2----------------|
|----------------------------------|----------------------------------|
|-0---------------0----------------|----------------------------------|

  |       |       |       |          |       |       |       |         
|-2/4---------------------------2/-|-4-----4---------2-------4--------|
|---------0-------2----------------|----------------------------------|
|-2/4---------------------0-----2/-|-4-------4-------2-------4--------|
|---------0-------2----------------|----------------------------------|
|----------------------------------|----------------------------------|
|----------------------------------|----------------------------------|

  |       |       |       |          |       |       |       |         
|-0--------------------------------|-2-------2-------2----------------|
|----------------------------------|----------------------------------|
|----------------------------------|---------2---------------2--------|
|---------2---------------2--------|----------------------------------|
|----------------------------------|-2---------------2----------------|
|-0---------------0----------------|----------------------------------|

  |       |       |       |          |       |       |       |         
|-2-------------2/4-------2--------|-0---------------------0----------|
|-------0--------------------------|-----------------2----------------|
|---------2-----2/4-------2--------|----------------------------------|
|----------------------------------|---------2---------------2--------|
|-2--------------------------------|-----------------0----------------|
|----------------------------------|-0--------------------------------|

  |       |       |       |          |       |       |       |         
|-0--------------------------------|---------0-------0----------------|
|----------------------------------|-2--------------------------------|
|----------------------------------|----------------------------------|
|---------2---------------2--------|---------2---------------2--------|
|----------------------------------|-0---------------0----------------|
|-0---------------0----------------|----------------------------------|

  |       |       |       |          |       |       |       |         
|-------0---------2----------------|-----------------------0----------|
|-2-------------2---------2--------|-0---------------2----------------|
|-----------------2----------------|----------------------------------|
|---------2---------------2--------|---------2---------------2--------|
|-0--------------------------------|-----------------0----------------|
|----------------------------------|-0--------------------------------|

  |       |       |       |          |       |       |       |         
|----------------------------------|-2-------2-------2----------------|
|-0--------------------------------|----------------------------------|
|----------------------------------|---------2---------------2--------|
|---------2---------------2--------|----------------------------------|
|----------------------------------|-2---------------2----------------|
|-0---------------0----------------|----------------------------------|

  |       |       |       |          |       |       |       |         
|-2-------------2/4-------2--------|-0---------------------0---------||
|-------0--------------------------|-----------------2---------------||
|---------2-----2/4-------2--------|---------------------------------||
|----------------------------------|---------2---------------2-------||
|-2--------------------------------|-----------------0---------------||
|----------------------------------|-0-------------------------------||

>1|       |       |       |        >2|       |       |       |         
|-0-------------------------------||-0--------------------------------|
|---------------------------------*|-0--------------------------------|
|-------------------------------1-||----------------------------------|
|---------2---------------2-------||----------------------------------|
|---------------------------------*|----------------------------------|
|-0---------------0---------------||-0--------------------------------|