Download Options   MIDI - TablEdit

Back toThe Originals Page 

 

Marching On To Glory


By Len Curle

 

Tuning : F# B E A C# F# (capo at second fret using E chord Shapes)   Time Signature: 4/4

 |       |       |       |        |       |       |       |        
|--------------------------------|--------------------------------|
|0---------------0-------2-------|0-------------------------------|
|--------------1-----------------|----------------1---------------|
|--------2---------------2-------|--------2---------------2-------|
|--------------------------------|--------------------------------|
|0---------------0---------------|0---------------0---------------|

 |       |       |       |        |       |       |       |        
|--------------0-0-------2-------|0-------------------------------|
|2-------------------------------|--------------------------------|
|--------------------------------|--------------------------------|
|--------2---------------2-------|--------2---------------2-------|
|0---------------0---------------|--------------------------------|
|--------------------------------|0---------------0---------------|

 |       |       |       |        |       |       |       |        
|--------------0-0-------2-------|0-------------------------------|
|2-------------------------------|----------------0---------------|
|--------------------------------|--------------------------------|
|--------2---------------2-------|--------2---------------2-------|
|0---------------0---------------|--------------------------------|
|--------------------------------|0---------------0---------------|

 |       |       |       |        |       |       |       |        
|2---------------2-------2-------|2-------------------------------|
|--------------0-----------------|--------------------------------|
|--------2---------------2-------|--------2---------------2-------|
|--------------------------------|--------------------------------|
|2---------------2---------------|2---------------2---------------|
|--------------------------------|--------------------------------|

 |       |       |       |        |       |       |       |        
|--------------------------------|--------------------------------|
|0---------------0-------2-------|0-------------------------------|
|--------------1-----------------|----------------1---------------|
|--------2---------------2-------|--------2---------------2-------|
|--------------------------------|--------------------------------|
|0---------------0---------------|0---------------0---------------|

 |       |       |       |        |       |       |       |        
|--------------0-0-------2-------|0-------------------------------|
|2-------------------------------|--------------------------------|
|--------------------------------|--------------------------------|
|--------2---------------2-------|--------2---------------2-------|
|0---------------0---------------|--------------------------------|
|--------------------------------|0---------------0---------------|

 |       |       |       |        |       |       |       |        
|--------------0-0-------2-------|0-------------------------------|
|2-------------------------------|----------------0---------------|
|--------------------------------|--------------------------------|
|--------2---------------2-------|--------2---------------2-------|
|0---------------0---------------|--------------------------------|
|--------------------------------|0---------------0---------------|

 |       |       |       |        |       |       |       |        
|2---------------3-------2-------|0-------------------------------|
|--------------0-----------------|--------------------------------|
|--------2---------------2-------|--------------------------------|
|--------------------------------|--------2---------------2-------|
|2---------------3---------------|--------------------------------|
|--------------------------------|0---------------0---------------|

 |       |       |       |        |       |       |       |        
|--------4-------4-------2-------|0-------------------------------|
|------5-------5-----------------|----------------0---------------|
|--------4---------------2-------|--------------------------------|
|--------------------------------|--------2---------------2-------|
|--------------------------------|--------------------------------|
|0---------------0---------------|0---------------0---------------|

 |       |       |       |        |       |       |       |        
|------0---------2-------0-------|--------------------------------|
|2-------------2-----------------|0-------------------------------|
|--------2---------------2-------|--------------------------------|
|--------------------------------|--------2---------------2-------|
|0---------------0---------------|--------------------------------|
|--------------------------------|0---------------0---------------|

 |       |       |       |        |       |       |       |        
|------0---------0-------2-------|4---------------0---------------|
|2-------------2-----------------|--------------------------------|
|--------2---------------2-------|--------4-----------------------|
|--------------------------------|------------------------2-------|
|0---------------0---------------|--------------------------------|
|--------------------------------|0---------------0---------------|

 |       |       |       |        |       |       |       |        
|4---------------4-------2-------|0-------------------------------|
|------5-------5-----------------|--------------------------------|
|--------4---------------2-------|--------------------------------|
|--------------------------------|--------2---------------2-------|
|--------------------------------|--------------------------------|
|0---------------0---------------|0---------------0---------------|

 |       |       |       |        |       |       |       |        
|--------4-------4-------2-------|0-------------------------------|
|------5-------5-----------------|----------------0---------------|
|--------4---------------2-------|--------------------------------|
|--------------------------------|--------2---------------2-------|
|--------------------------------|--------------------------------|
|0---------------0---------------|0---------------0---------------|

 |       |       |       |        |       |       |       |        
|------0---------2-------0-------|--------------------------------|
|2-------------2-----------------|0-------------------------------|
|--------2---------------2-------|--------------------------------|
|--------------------------------|--------2---------------2-------|
|0---------------0---------------|--------------------------------|
|--------------------------------|0---------------0---------------|

 |       |       |       |        |       |       |       |        
|--------4-------4-------2-------|0-------------------------------|
|------5-------5-----------------|----------------0---------------|
|--------4---------------2-------|--------------------------------|
|--------------------------------|--------2---------------2-------|
|--------------------------------|--------------------------------|
|0---------------0---------------|0---------------0---------------|

 |       |       |       |        |       |       |       |        
|2---------------2-------2-------|2-------------------------------|
|--------------0-----------------|--------------------------------|
|--------2---------------2-------|--------2---------------2-------|
|--------------------------------|--------------------------------|
|2---------------2---------------|2---------------2---------------|
|--------------------------------|--------------------------------|

 |       |       |       |        |       |       |       |        
|--------4-------4-------2-------|0-------------------------------|
|------5-------5-----------------|----------------0---------------|
|--------4---------------2-------|--------------------------------|
|--------------------------------|--------2---------------2-------|
|--------------------------------|--------------------------------|
|0---------------0---------------|0---------------0---------------|

 |       |       |       |        |       |       |       |        
|------0---------2-------0-------|--------------------------------|
|2-------------2-----------------|0-------------------------------|
|--------2---------------2-------|--------------------------------|
|--------------------------------|--------2---------------2-------|
|0---------------0---------------|--------------------------------|
|--------------------------------|0---------------0---------------|

 |       |       |       |        |       |       |       |        
|------0---------0-------2-------|4---------------0---------------|
|2-------------2-----------------|--------------------------------|
|--------2---------------2-------|--------4-----------------------|
|--------------------------------|------------------------2-------|
|0---------------0---------------|--------------------------------|
|--------------------------------|0---------------0---------------|

 |       |       |       |        |       |       |       |        
|4---------------4-------2-------|0-------------------------------|
|------5-------5-----------------|--------------------------------|
|--------4---------------2-------|--------------------------------|
|--------------------------------|--------2---------------2-------|
|--------------------------------|--------------------------------|
|0---------------0---------------|0---------------0---------------|