Download Options TablEdit - MID

Home        Back to previous page - Frames - No Frames

 

Out of the Blue
By Len Curle

Tuning : E A D G B E Time Signature: 4/4
 |       |       |       |        |       |       |       |        
|--------2-------------2---------|--------0-----------------------|
|------3---------3---------------|2-------------2-----------------|
|--------2-----2---------2-------|--------------------------------|
|0---------------0---------------|--------2---------------2-------|
|--------------------------------|--------------------------------|
|--------------------------------|2---------------2---------------|

 |       |       |       |        |       |       |       |        
|--------------------------------|--------------------------------|
|--------0-------0-----0---------|2-----0-------------------------|
|------2-------2-----------------|----------------2---------------|
|--------1---------------1-------|--------1---------------1-------|
|2---------------2---------------|2---------------2---------------|
|--------------------------------|--------------------------------|

 |       |       |       |        |       |       |       |        
|--------0-------------0---------|3---------------2---------------|
|----------------3---------------|--------------------------------|
|--------------------------------|--------------------------------|
|--------2---------------2-------|--------2---------------2-------|
|--------------------------------|0---------------0---------------|
|0---------------0---------------|--------------------------------|

 |       |       |       |        |       |       |       |        
|------------------------2-------|--------------------------------|
|3---------------------3-------3-|2-------------------------------|
|--------2---------------2-------|--------0---------------0-------|
|0---------------0---------------|--------------------------------|
|--------------------------------|0---------------0---------------|
|--------------------------------|--------------------------------|

 |       |       |       |        |       |       |       |        
|--------------------------------|--------1-------0---------------|
|3-------------------------------|----------------------3---------|
|--------------------------------|--------------------------------|
|--------0---------------0-------|--------0---------------0-------|
|0---------------0---------------|--------------------------------|
|--------------------------------|3---------------3---------------|

 |       |       |       |        |       |       |       |        
|--------1-------0---------------|2-------------------------------|
|------------------------3-------|------------------------------3-|
|--------------------------------|----------------------2---------|
|--------0---------------0-------|--------0---------------0-------|
|--------------------------------|0---------------0---------------|
|3---------------3---------------|--------------------------------|

 |       |       |       |        |       |       |       |        
|--------------------------------|--------0-------------0---------|
|--------------------------------|----------------3---------------|
|--------------------------------|--------------------------------|
|--------0---------------0-------|--------2---------------2-------|
|0---------------0---------------|--------------------------------|
|--------------------------------|0---------------0---------------|

 |       |       |       |        |       |       |       |        
|--------0---------------0-------|5---------------------5-5-------|
|----------------3---------------|--------------------------------|
|--------------------------------|--------------------------------|
|--------2---------------2-------|--------2---------------2-------|
|--------------------------------|0---------------0---------------|
|0---------------0---------------|--------------------------------|

 |       |       |       |        |       |       |       |        
|3-------------------------------|--------0-------------0---------|
|--------------------------------|----------------3---------------|
|--------------------------------|--------------------------------|
|--------2---------------2-------|--------2---------------2-------|
|0---------------0---------------|--------------------------------|
|--------------------------------|0---------------0---------------|

 |       |       |       |        |       |       |       |        
|3---------------2---------------|--------------------------------|
|--------------------------------|3-----------------------2-------|
|--------------------------------|--------2-------------0---------|
|--------2---------------2-------|0-----------------------2-------|
|0---------------0---------------|----------------0---------------|
|--------------------------------|--------------------------------|

 |       |       |       |        |       |       |       |        
|--------------------------------|--------------------------------|
|3-------------------------------|--------------------------------|
|2-------------------------------|--------------------------------|
|0-------------------------------|--------------------------------|
|--------------------------------|--------------------------------|
|--------------------------------|--------------------------------|