Download Options TablEdit - MID

Home        Back to previous page - Frames - No Frames

 

Rickshaw


by Len Curle


Tuning : D A D G B E Time Signature: 4/4

 |       |       |       |        |       |       |       |        
|10--------------7---------------|5---------------7---------------|
|10--------------7---------------|5---------------7---------------|
|--------------------------------|--------------------------------|
|--------0---------------0-------|--------0---------------0-------|
|--------------------------------|--------------------------------|
|0---------------0---------------|0---------------0---------------|

 |       |       |       |        |       |       |       |        
|5---7---5-----------------------|----------------5---7---5-------|
|5---7---5-------7---------------|----------------5---7---5-------|
|----------------7---------------|--------------------------------|
|--------0---------------0-------|--------0---------------0-------|
|--------------------------------|--------------------------------|
|0---------------0---------------|0---------------0---------------|

 |       |       |       |        |       |       |       |        
|--------------------------------|--------------------------------|
|7---------------5---------------|3-------------------------------|
|7---------------6---------------|2-------------------------------|
|--------0---------------0-------|--------0---------------0-------|
|--------------------------------|--------------------------------|
|0---------------0---------------|0---------------0---------------|

 |       |       |       |        |       |       |       |        
|------------0---------------0---|------------0-------------------|
|----3---------------3-----------|----3---------------3-----------|
|2-------------------------------|--------------------------------|
|--------0---------------0-------|--------0---------------0-------|
|--------------------------------|--------------------------------|
|0---------------0---------------|0---------------0---------------|

 |       |       |       |        |       |       |       |        
|------------0---------------0---|--------------------------------|
|----3---------------3-----------|----3-----------3---------------|
|2-------------------------------|--------------------------------|
|--------0---------------0-------|--------0---------------0-------|
|--------------------------------|--------------------------------|
|0---------------0---------------|0---------------0---------------|

 |       |       |       |        |       |       |       |        
|------------0---------------0---|------------0-------------------|
|----3---------------3-----------|----3---------------3-----------|
|2-------------------------------|--------------------------------|
|--------0---------------0-------|--------0---------------0-------|
|--------------------------------|--------------------------------|
|0---------------0---------------|0---------------0---------------|

 |       |       |       |        |       |       |       |        
|------------0---------------0---|--------------------------------|
|----3---------------3-----------|----3-----------3---------------|
|2-------------------------------|--------------------------------|
|--------0---------------0-------|--------0---------------0-------|
|--------------------------------|--------------------------------|
|0---------------0---------------|0---------------0---------------|

 |       |       |       |        |       |       |       |        
|--------------------------------|----------------5---------------|
|3---------------5---------------|7---------------5---------------|
|2---------------6---------------|7-------------------------------|
|--------0---------------0-------|--------0---------------0-------|
|--------------------------------|--------------------------------|
|0---------------0---------------|0---------------0---------------|

 |       |       |       |        |       |       |       |        
|7---10----------7---------------|----------------5---------------|
|7---10----------7---------------|----------------5---------------|
|--------------------------------|--------------------------------|
|--------0---------------0-------|--------0---------------0-------|
|--------------------------------|--------------------------------|
|0---------------0---------------|0---------------0---------------|

 |       |       |       |        |       |       |       |        
|7---10----------7---------------|5---------------7---------------|
|7---10----------7---------------|5---------------7---------------|
|--------------------------------|--------------------------------|
|--------0---------------0-------|--------0---------------0-------|
|--------------------------------|--------------------------------|
|0---------------0---------------|0---------------0---------------|

 |       |       |       |        |       |       |       |        
|--------------------------------|--------------------------------|
|7-------------------------------|--------------------------------|
|7-------------------------------|--------------------------------|
|--------0---------------0-------|--------0---------------0-------|
|--------------------------------|--------------------------------|
|0---------------0---------------|0---------------0---------------|

 |       |       |       |        |       |       |       |        
|5-------------------------------|--------------------------------|
|5---------------7---------------|3-------------------------------|
|----------------7---------------|2-------------------------------|
|--------0---------------0-------|--------0---------------0-------|
|--------------------------------|--------------------------------|
|0---------------0---------------|0---------------0---------------|

 |       |       |       |        |       |       |       |        
|--------------------------------|10--------------7---------------|
|--------------------------------|10--------------7---------------|
|--------------------------------|--------------------------------|
|--------0---------------0-------|--------0---------------0-------|
|--------------------------------|--------------------------------|
|0---------------0---------------|0---------------0---------------|

 |       |       |       |        |       |       |       |        
|5---------------7---------------|10--------------7---------------|
|5---------------7---------------|10--------------7---------------|
|--------------------------------|--------------------------------|
|--------0---------------0-------|--------0---------------0-------|
|--------------------------------|--------------------------------|
|0---------------0---------------|0---------------0---------------|

 |       |       |       |        |       |       |       |        
|5-------------------------------|10--------------7---------------|
|5-------------------------------|10--------------7---------------|
|--------------------------------|--------------------------------|
|--------0---------------0-------|--------0---------------0-------|
|--------------------------------|--------------------------------|
|0---------------0---------------|0---------------0---------------|

 |       |       |       |        |       |       |       |        
|5---------------7---------------|--------------------------------|
|5---------------7---------------|7---------------5---------------|
|--------------------------------|7---------------6---------------|
|--------0---------------0-------|--------0---------------0-------|
|--------------------------------|--------------------------------|
|0---------------0---------------|0---------------0---------------|

 |       |       |       |        |       |       |       |        
|--------------------------------|--------------------------------|
|3-------------------------------|--------------------------------|
|2-------------------------------|--------------------------------|
|--------0---------------0-------|--------0---------------0-------|
|--------------------------------|--------------------------------|
|0---------------0---------------|0---------------0---------------|

 |       |       |       |        |       |       |       |        
|--------------------------------|--------------------------------|
|3-------------------------------|--------------------------------|
|2-------------------------------|--------------------------------|
|--------------------------------|--------------------------------|
|--------------------------------|--------------------------------|
|0-------------------------------|--------------------------------|