Download Options  MIDI - TablEdit

Home        Back to previous page - Frames - No Frames


Shanghai Butterfly
By Len Curle

     
Tuning : F# B E A C# F# 	Time Signature: 4/4

  |       |       |       |          |       |       |       |         
|---------0---3---0----------------|-0--------------------------------|
|-0---3-------------------3--------|-----------------3----------------|
|----------------------------------|----------------------------------|
|---------0---------------0--------|---------0---------------0--------|
|----------------------------------|----------------------------------|
|-3---------------3----------------|-3---------------3----------------|

  |       |       |       |          |       |       |       |         
|-------------0--------------------|----------------------------------|
|-----3---------------3---0--------|-3--------------------------------|
|----------------------------------|----------------------------------|
|---------0---------------0--------|---------0---------------0--------|
|----------------------------------|----------------------------------|
|-3---------------3----------------|-3---------------3----------------|

  |       |       |       |          |       |       |       |         
|---------0---3---0----------------|-0--------------------------------|
|-0---3-------------------3--------|-----------------3----------------|
|----------------------------------|----------------------------------|
|---------0---------------0--------|---------0---------------0--------|
|----------------------------------|----------------------------------|
|-3---------------3----------------|-3---------------3----------------|

  |       |       |       |          |       |       |       |         
|-------------0--------------------|----------------------------------|
|-----3---------------3---0--------|----------------------------------|
|----------------------------------|-0--------------------------------|
|---------0---------------0--------|---------0---------------0--------|
|----------------------------------|----------------------------------|
|-3---------------3----------------|-3---------------3----------------|

  |       |       |       |          |       |       |       |         
||0-------------------0------------|-3-----------0--------------------|
|*0b----------3--------------------|---------------------3------------|
||---------------------------------|----------------------------------|
||--------2---------------2--------|---------2---------------2--------|
|*3---------------3----------------|-3---------------3----------------|
||---------------------------------|----------------------------------|

  |       |       |       |          |       |       |       |         
|---------0-----------0------------|-3-----------0--------------------|
|-----------------3----------------|---------------------3------------|
|----------------------------------|----------------------------------|
|---------2---------------2--------|---------2---------------2--------|
|-3---------------3----------------|-3---------------3----------------|
|----------------------------------|----------------------------------|

  |       |       |       |          |       |       |       |         
|-0--------------------------------|-------------0--------------------|
|-------------3--------------------|-----3---------------3---0--------|
|----------------------------------|----------------------------------|
|---------0---------------0--------|---------0---------------0--------|
|----------------------------------|----------------------------------|
|-3---------------3----------------|-3---------------3----------------|

  |       |       |       |          |       |       |       |         
|----------------------------------|-0-------------------0------------|
|-3--------------------------------|-0b----------3--------------------|
|----------------------------------|----------------------------------|
|---------0---------------0--------|---------2---------------2--------|
|----------------------------------|-3---------------3----------------|
|-3---------------3----------------|----------------------------------|

  |       |       |       |          |       |       |       |         
|-3-----------0--------------------|---------0-----------0------------|
|---------------------3------------|-----------------3----------------|
|----------------------------------|----------------------------------|
|---------2---------------2--------|---------2---------------2--------|
|-3---------------3----------------|-3---------------3----------------|
|----------------------------------|----------------------------------|

  |       |       |       |          |       |       |       |         
|-3-----------0--------------------|-0--------------------------------|
|---------------------3------------|-------------3--------------------|
|----------------------------------|----------------------------------|
|---------2---------------2--------|---------0---------------0--------|
|-3---------------3----------------|----------------------------------|
|----------------------------------|-3---------------3----------------|

  |       |       |       |          |       |       |       |         
|-------------0--------------------|----------------------------------|
|-----3---------------3---0--------|-3--------------------------------|
|----------------------------------|----------------------------------|
|---------0---------------0--------|---------0---------------0--------|
|----------------------------------|----------------------------------|
|-3---------------3----------------|-3---------------3----------------|

  |       |       |       |          |       |       |       |         
|-------------0--------------------|---------------------------------||
|-----3---------------3---0--------|---------------------------------||
|----------------------------------|-0-------------------------------||
|---------0---------------0--------|---------0---------------0-------||
|----------------------------------|---------------------------------||
|-3---------------3----------------|-3---------------3---------------||

>1|       |       |       |          |       |       |       |         
|-0--------------------------------|---------0---3---0----------------|
|-----------------3----------------|-0---3----------------------------|
|----------------------------------|----------------------------------|
|---------0---------------0--------|---------0---------------0--------|
|----------------------------------|----------------------------------|
|-3---------------3----------------|-3---------------3----------------|

  |       |       |       |          |       |       |       |         
|---------0---3---0----------------|-0--------------------------------|
|-0---3-------------------3--------|----------------------------------|
|----------------------------------|----------------------------------|
|---------0---------------0--------|---------0---------------0--------|
|----------------------------------|----------------------------------|
|-3---------------3----------------|-3---------------3----------------|

  |       |       |       |          |       |       |       |         
|-0--------------------------------|---------0---3---0----------------|
|-----------------3----------------|-0---3----------------------------|
|----------------------------------|----------------------------------|
|---------0---------------0--------|---------0---------------0--------|
|----------------------------------|----------------------------------|
|-3---------------3----------------|-3---------------3----------------|

  |       |       |       |          |       |       |       |         
|---------0---3---0----------------|---------------------------------||
|-0---3-------------------3--------|---------------------------------*|
|----------------------------------|-0-------------------------------||
|---------0---------------0--------|---------0---------------0-------||
|----------------------------------|---------------------------------*|
|-3---------------3----------------|-3---------------3---------------||

>2|       |       |       |          |       |       |       |         
|---------0---3---0----------------|-0--------------------------------|
|-0---3-------------------3--------|-----------------3----------------|
|----------------------------------|----------------------------------|
|---------0---------------0--------|---------0---------------0--------|
|----------------------------------|----------------------------------|
|-3---------------3----------------|-3---------------3----------------|

  |       |       |       |          |       |       |       |         
|-------------0--------------------|----------------------------------|
|-----3---------------3---0--------|-3--------------------------------|
|----------------------------------|----------------------------------|
|---------0---------------0--------|---------0---------------0--------|
|----------------------------------|----------------------------------|
|-3---------------3----------------|-3---------------3----------------|

  |       |       |       |          |       |       |       |         
|---------0---3---0----------------|-0--------------------------------|
|-0---3-------------------3--------|-----------------3----------------|
|----------------------------------|----------------------------------|
|---------0---------------0--------|---------0---------------0--------|
|----------------------------------|----------------------------------|
|-3---------------3----------------|-3---------------3----------------|

  |       |       |       |          |       |       |       |         
|-------------0--------------------|----------------------------------|
|-----3---------------3---0--------|----------------------------------|
|----------------------------------|-0--------------------------------|
|---------0---------------0--------|---------0---------------0--------|
|----------------------------------|----------------------------------|
|-3---------------3----------------|-3---------------3----------------|

  |       |       |       |          |       |       |       |         
|-------------0--------------------|----------------------------------|
|-----3---------------3---0--------|----------------------------------|
|----------------------------------|-0--------------------------------|
|---------0---------------0--------|---------0---------------0--------|
|----------------------------------|----------------------------------|
|-3---------------3----------------|-3---------------3----------------|

  |       |       |       |          |       |       |       |         
|-------------0--------------------|----------------------------------|
|-----3---------------3---0--------|----------------------------------|
|----------------------------------|-0--------------------------------|
|---------0---------------0--------|----------------------------------|
|----------------------------------|----------------------------------|
|-3---------------3----------------|-3--------------------------------|