Download Options  MIDI - TablEdit

Home        Back to previous page - Frames - No Frames

 

Sticks
By Len Curle

Arranged & TablEdited by LenTuning : E A D G B E

 |       |       |       |        |       |       |       |        
|--------------------------------|----------------0---------------|
|1---------------2---------------|3-------3-----------------------|
|--------------------------------|------4-------------------------|
|--------2---------------4-------|--------5---------------2-------|
|3---------------4---------------|5-------------------------------|
|--------------------------------|----------------0---------------|

 |       |       |       |        |       |       |       |        
|3-------3-------2-------2-------|3-------------------------------|
|------2-------1-------1---------|--------------------------------|
|--------------------------------|--------------------------------|
|--------2---------------0-------|--------0---------------0-------|
|0---------------0---------------|--------------------------------|
|--------------------------------|3---------------3---------------|

 |       |       |       |        |       |       |       |        
|--------7-------7-----7---------|7-----7-------7-----------------|
|------5-------5---------------5-|--------------------------------|
|--------7---------------7-------|--------7---------------7-------|
|--------------------------------|--------------------------------|
|7---------------7---------------|7---------------7---------------|
|--------------------------------|--------------------------------|

 |       |       |       |        |       |       |       |        
|--------5-------------5h7-------|5-------------------------------|
|--------------------------------|--------7-------5---------------|
|--------------------------------|--------------------------------|
|--------7---------------7-------|--------7---------------7-------|
|--------------------------------|--------------------------------|
|5---------------5---------------|5---------------5---------------|

 |       |       |       |        |       |       |       |        
|--------5---------------------5-|--------------5-----------------|
|----------------------3---------|------3-------------------------|
|--------5---------------5-------|--------5---------------5-------|
|--------------------------------|--------------------------------|
|5---------------5---------------|5---------------5---------------|
|--------------------------------|--------------------------------|

 |       |       |       |        |       |       |       |        
|--------3-------------3h5-------|3---------------3---------------|
|--------------------------------|--------5-----------------------|
|--------------------------------|--------------------------------|
|--------5---------------5-------|--------5---------------5-------|
|--------------------------------|--------------------------------|
|3---------------3---------------|3---------------3---------------|

 |       |       |       |        |       |       |       |        
|--------0---------------------0-|--------------0-----------------|
|----------------------3---------|------3---------------3---------|
|--------------------------------|--------------------------------|
|--------2---------------2-------|--------2---------------2-------|
|--------------------------------|--------------------------------|
|0---------------0---------------|0---------------0---------------|

 |       |       |       |        |       |       |       |        
|--------3---------------------3-|--------------3-----------------|
|----------------------2---------|------2-------------------------|
|--------------------------------|--------------------------------|
|--------2---------------2-------|--------2---------------2-------|
|0---------------0---------------|0---------------0---------------|
|--------------------------------|--------------------------------|

 |       |       |       |        |       |       |       |        
|--------2---------------------2-|--------------2-----------------|
|----------------------1---------|------1-------------------------|
|--------------------------------|--------------------------------|
|--------0---------------0-------|--------0---------------0-------|
|0---------------0---------------|0---------------0---------------|
|--------------------------------|--------------------------------|

 |       |       |       |        |       |       |       |        
|3-------0-----------------------|--------------------------------|
|----------------3-------0-------|------0-------------------------|
|--------------------------------|3---------------0---------------|
|--------------------------------|--------------------------------|
|--------------------------------|--------------------------------|
|--------------------------------|--------------------------------|

 |       |       |       |        |       |       |       |        
|--------------------------------|----------------0---------------|
|1---------------2---------------|3-------3-----------------------|
|--------------------------------|------4-------------------------|
|--------2---------------4-------|--------5---------------2-------|
|3---------------4---------------|5-------------------------------|
|--------------------------------|----------------0---------------|

 |       |       |       |        |       |       |       |        
|3-------3-------2-------2-------|3-------------------------------|
|------2-------1-------1---------|--------------------------------|
|--------------------------------|--------------------------------|
|--------2---------------0-------|--------0---------------0-------|
|0---------------0---------------|--------------------------------|
|--------------------------------|3---------------3---------------|