Download Options  MIDI - TablEdit

Home        Back to previous page - Frames - No Frames

 

Won't You Tell Me Why
By Len Curle

 

Tuning : F# B E A C# F# (capo at second fret using E chord shapes)  Time Signature: 4/4

 |       |       |       |        |       |       |       |        
|--------4-------0-----4---------|3-------------------------------|
|------5-------0-----------------|2-------------------------------|
|--------4---------------4-------|--------------------------------|
|--------------------------------|--------2---------------2-------|
|--------------------------------|--------------------------------|
|0---------------0---------------|0---------------0---------------|

 |       |       |       |        |       |       |       |        
|--------4-------0-----4---------|3-------------------------------|
|------5-------0-----------------|2-------------------------------|
|--------4---------------4-------|--------------------------------|
|--------------------------------|--------2---------------2-------|
|--------------------------------|--------------------------------|
|0---------------0---------------|0---------------0---------------|

 |       |       |       |        |       |       |       |        
|--------4-------0-----4---------|3-------3-------2-------2-------|
|------5-------0-----------------|2-------2-------0-------0-------|
|--------4---------------4-------|--------------------------------|
|--------------------------------|--------2---------------1-------|
|--------------------------------|----------------2---------------|
|0---------------0---------------|0-------------------------------|

 |       |       |       |        |       |       |       |        
|0-----------------------2-------|0-------------------------------|
|0---------------------0-------0-|--------------------------------|
|--------------------------------|--------------------------------|
|--------2---------------1-------|--------2---------------2-------|
|--------------------------------|--------------------------------|
|0---------------0---------------|0---------------0---------------|

 |       |       |       |        |       |       |       |        
|--------7-------7-----7---------|4-------------------------------|
|------8-------8-----------------|5-------------------------------|
|--------7---------------7-------|--------4---------------4-------|
|--------------------------------|--------------------------------|
|--------------------------------|--------------------------------|
|0---------------0---------------|0---------------0---------------|

 |       |       |       |        |       |       |       |        
|--------7-------7-----7---------|4-------------------------------|
|------8-------8-----------------|5-------------------------------|
|--------7---------------7-------|--------4---------------4-------|
|--------------------------------|--------------------------------|
|--------------------------------|--------------------------------|
|0---------------0---------------|0---------------0---------------|

 |       |       |       |        |       |       |       |        
|--------7-------7-----7---------|4-------4-------3-------3-------|
|------8-------8-----------------|5-------5-------2-------2-------|
|--------7---------------7-------|--------4-----------------------|
|--------------------------------|------------------------2-------|
|--------------------------------|--------------------------------|
|0---------------0---------------|0---------------0---------------|

 |       |       |       |        |       |       |       |        
|0-----------------------3-------|0-------------------------------|
|0---------------------2-------0-|--------------------------------|
|--------------------------------|--------------------------------|
|--------2---------------2-------|--------2---------------2-------|
|--------------------------------|--------------------------------|
|0---------------0---------------|0---------------0---------------|