Download Options    Desktop Guitarist - MIDI - TablEdit

Home        Back to previous page - Frames - No Frames

 

Alice's Truck
Arranged & TablEdited by Len Curle


Tuning : E A D G B E Time Signature: 4/4

 

  |       |       |       |          |       |       |       |         
|----------------------------------||2-----2---------2----------------|
|-------------------------------3--|*----------------------1----------|
|---------2---------------2--------||--------2---------------2--------|
|-0---------------0----------------||0---------------0----------------|
|----------------------------------|*---------------------------------|
|----------------------------------||---------------------------------|

  |       |       |       |          |       |       |       |         
|-5-----5---------5----------------|-0---------------3----------------|
|----------------------------------|-------3---------------2----------|
|---------4---------------4--------|-------------------------2--------|
|-4---------------4----------------|---------2------------------------|
|----------------------------------|-----------------0----------------|
|----------------------------------|-0--------------------------------|

  |       |       |       |          |       |       |       |         
|----------------------------------|-------2---------2----------------|
|-3--------------------------------|-3---------------------1----------|
|---------2---------------2--------|---------2---------------2--------|
|-0---------------0----------------|-0---------------0----------------|
|----------------------------------|----------------------------------|
|----------------------------------|----------------------------------|

  |       |       |       |          |       |       |       |         
|-5-----5---------5----------------|-0---------------0----------------|
|----------------------------------|-------3---------------3----------|
|---------4---------------4--------|----------------------------------|
|-4---------------4----------------|---------2---------------2--------|
|----------------------------------|----------------------------------|
|----------------------------------|-0---------------0----------------|

  |       |       |       |          |       |       |       |         
|----------------------------------|-2---------------2-----2----------|
|-2--------------------------------|-------3-------3------------------|
|---------2---------------2--------|---------2---------------2--------|
|----------------------------------|-0---------------0----------------|
|-0---------------0----------------|----------------------------------|
|----------------------------------|----------------------------------|

  |       |       |       |          |       |       |       |         
|-2-------------2------------------|-3-----3---------3-----3----------|
|-------1--------------------------|---------------3------------------|
|---------2---------------2--------|----------------------------------|
|-0---------------0----------------|---------0---------------0--------|
|----------------------------------|----------------------------------|
|----------------------------------|-3---------------3----------------|

  |       |       |       |          |       |       |       |         
|-4-----4---------4----------------|-2-----2---------2----------------|
|---------------3------------------|-----------------------1----------|
|---------3---------------3--------|---------2---------------2--------|
|-3---------------3----------------|-0---------------0----------------|
|----------------------------------|----------------------------------|
|----------------------------------|----------------------------------|

  |       |       |       |          |       |       |       |         
|-5-----5---------5----------------|-0---------------3---------------||
|----------------------------------|-------3---------------2---------||
|---------4---------------4--------|-------------------------2-------||
|-4---------------4----------------|---------2-----------------------||
|----------------------------------|-----------------0---------------||
|----------------------------------|-0-------------------------------||

>1|       |       |       |        >2|       |       |       |         
|---------------------------------||----------------------------------|
|-3-----------------------------3-*|-3--------------------------------|
|---------2---------------2-------||---------2---------------2--------|
|-0---------------0---------------||-0---------------0----------------|
|---------------------------------*|----------------------------------|
|---------------------------------||----------------------------------|

  |       |       |       |          |       |       |       |         
|-2--------------------------------|----------------------------------|
|-3--------------------------------|----------------------------------|
|-2--------------------------------|----------------------------------|
|-0--------------------------------|----------------------------------|
|----------------------------------|----------------------------------|
|----------------------------------|----------------------------------|