Download Options  - TablEdit - MIDI

Home        Back to previous page - Frames - No Frames

 

I'm Fixin' to Die Rag

By Country Joe McDonald Arranged & Tabledited by Len Curle


Tuning : E A D G B E Time Signature: 4/4

 

 |       |       |       |        |       |       |       |        
|5---------------5---------------|0---------------0---------------|
|------4-------------------------|------3-------------------------|
|--------4---------------4-------|--------------------------------|
|4---------------4---------------|--------2---------------2-------|
|--------------------------------|--------------------------------|
|--------------------------------|0---------------0---------------|

 |       |       |       |        |       |       |       |        
|3---------------3---------------|--------2-----------------------|
|------2-----------------2-------|3---------------3---------------|
|--------------------------------|--------------------------------|
|--------2---------------2-------|--------0---------------0-------|
|0---------------0---------------|0---------------0---------------|
|--------------------------------|--------------------------------|

 |       |       |       |        |       |       |       |        
|--------3-------------3---------|3-------3-------3---------------|
|------2---------2-------------2-|--------------------------------|
|--------------0-----------------|--------------------------------|
|--------2---------------2-------|--------2---------------2-------|
|0---------------0---------------|0---------------0---------------|
|--------------------------------|--------------------------------|

 |       |       |       |        |       |       |       |        
|--------2-------------2---------|--------2-------2---------------|
|------3---------3---------------|3-------------------------------|
|--------------2---------------2-|--------------------------------|
|--------0---------------0-------|--------0---------------0-------|
|0---------------0---------------|0---------------0---------------|
|--------------------------------|--------------------------------|

 |       |       |       |        |       |       |       |        
|--------3-------------3---------|3-------3-------3---------------|
|------2---------2-------------2-|--------------------------------|
|--------------0-----------------|--------------------------------|
|--------2---------------2-------|--------2---------------2-------|
|0---------------0---------------|0---------------0---------------|
|--------------------------------|--------------------------------|

 |       |       |       |        |       |       |       |        
|--------2-------------2---------|--------2-------2---------------|
|------3---------3---------------|3-------------------------------|
|--------------2---------------2-|--------------------------------|
|--------0---------------0-------|--------0---------------0-------|
|0---------------0---------------|0---------------0---------------|
|--------------------------------|--------------------------------|

 |       |       |       |        |       |       |       |        
|5---------------5---------------|0---------------0---------------|
|------4-------------------------|------3-------------------------|
|--------4---------------4-------|--------------------------------|
|4---------------4---------------|--------2---------------2-------|
|--------------------------------|--------------------------------|
|--------------------------------|0---------------0---------------|

 |       |       |       |        |       |       |       |        
|3---------------3---------------|--------2-----------------------|
|------2-----------------2-------|3---------------3---------------|
|--------------------------------|--------------------------------|
|--------2---------------2-------|--------0---------------0-------|
|0---------------0---------------|0---------------0---------------|
|--------------------------------|--------------------------------|

 |       |       |       |        |       |       |       |        
|--------0-----------------------|--------3-----------------------|
|----------------------3---------|----------------------2---------|
|--------------------------------|--------------------------------|
|--------2---------------2-------|--------2---------------2-------|
|--------------------------------|0---------------0---------------|
|0---------------0---------------|--------------------------------|

 |       |       |       |        |       |       |       |        
|--------2-----------------------|--------2-----------------------|
|--------------3-----------------|----------------3---------------|
|----------------------2---------|------------------------2-------|
|--------0---------------0-------|--------0---------------0-------|
|0---------------0---------------|0---------------0---------------|
|--------------------------------|--------------------------------|

 |       |       |       |        |       |       |       |        
|--------------3-----------------|--------3-----------------------|
|--------2-----------------------|----------------2---------------|
|2-------------------------------|------------------------2-------|
|--------2---------------2-------|--------2---------------2-------|
|0---------------0---------------|0---------------0---------------|
|--------------------------------|--------------------------------|

 |       |       |       |        |       |       |       |        
|------2-------------------------|------2-------------------------|
|3---------------3---------------|--------------3-----------------|
|--------------------------------|----------------------2---------|
|--------0---------------0-------|--------0---------------0-------|
|0---------------0---------------|0---------------0---------------|
|--------------------------------|--------------------------------|

 |       |       |       |        |       |       |       |        
|--------0-----------------------|--------3-----------------------|
|------------------------3-------|----------------------2---------|
|--------------------------------|--------------------------------|
|--------2---------------2-------|--------2---------------2-------|
|--------------------------------|0---------------0---------------|
|0---------------0---------------|--------------------------------|

 |       |       |       |        |       |       |       |        
|--------2-----------------------|5---------------5---------------|
|--------------3-----------------|------4-------------------------|
|----------------------2---------|--------4---------------4-------|
|--------0---------------0-------|4---------------4---------------|
|0---------------0---------------|--------------------------------|
|--------------------------------|--------------------------------|

 |       |       |       |        |       |       |       |        
|0---------------0---------------|3---------------3---------------|
|------3-------------------------|------2-------------------------|
|--------------------------------|--------------------------------|
|--------2---------------2-------|--------2---------------2-------|
|--------------------------------|0---------------0---------------|
|0---------------0---------------|--------------------------------|

 |       |       |       |        |       |       |       |        
|2-------------------------------|--------------------------------|
|3-------------------------------|--------------------------------|
|2-------------------------------|--------------------------------|
|0-------------------------------|--------------------------------|
|--------------------------------|--------------------------------|
|--------------------------------|--------------------------------|