Download Options  MIDI - TablEdit

Home        Back to previous page - Frames - No Frames

 

Three Hit Rag

By Len Curle

Tuning : E A D G B E     Time Signature: 4/4

 |       |       |       |        |       |       |       |        
|--------3-------------3---------|0-------0-------0---------------|
|------0---------0---------------|3-------3-------3---------------|
|--------------0---------------0-|--------------------------------|
|--------0---------------0-------|--------2---------------2-------|
|--------------------------------|--------------------------------|
|3---------------3---------------|0---------------0---------------|

 |       |       |       |        |       |       |       |        
|------3---------2-------2-------|3-------------------------------|
|--------------1-----------------|--------------------------------|
|------------------------2-------|--------------------------------|
|--------2-------0---------------|--------0---------------0-------|
|0-------------------------------|--------------------------------|
|--------------------------------|3---------------3---------------|

 |       |       |       |        |       |       |       |        
|--------3-------------3---------|0-------0-------0---------------|
|------0---------0---------------|3-------3-------3---------------|
|--------------0---------------0-|--------------------------------|
|--------0---------------0-------|--------2---------------2-------|
|--------------------------------|--------------------------------|
|3---------------3---------------|0---------------0---------------|

 |       |       |       |        |       |       |       |        
|------3---------------3---------|2-------------------------------|
|----------------2---------------|--------------------------------|
|--------------0-----------------|--------------------------------|
|--------2---------------2-------|--------0---------------0-------|
|0---------------0---------------|0---------------0---------------|
|--------------------------------|--------------------------------|

 |       |       |       |        |       |       |       |        
|------3---------------3---------|1-------1-------1---------------|
|----------------0---------------|0-------0-------0---------------|
|--------------0-----------------|--------------------------------|
|--------0---------------0-------|--------0---------------0-------|
|--------------------------------|--------------------------------|
|3---------------3---------------|3---------------3---------------|

 |       |       |       |        |       |       |       |        
|------0---------------0---------|--------------------------------|
|----------------1---------------|4-------4-------4---------------|
|--------------0-----------------|6-------6-------6---------------|
|--------2---------------2-------|--------5---------------5-------|
|3---------------3---------------|6---------------6---------------|
|--------------------------------|--------------------------------|

 |       |       |       |        |       |       |       |        
|--------3-------------3---------|0-------0-------0---------------|
|------0---------0---------------|3-------3-------3---------------|
|--------------0---------------0-|--------------------------------|
|--------0---------------0-------|--------2---------------2-------|
|--------------------------------|--------------------------------|
|3---------------3---------------|0---------------0---------------|

 |       |       |       |        |       |       |       |        
|------3---------2-------2-------|3-------------------------------|
|--------------1-----------------|--------------------------------|
|------------------------2-------|--------------------------------|
|--------2-------0---------------|--------0---------------0-------|
|0-------------------------------|--------------------------------|
|--------------------------------|3---------------3---------------|