Download Options TablEdit - MID

Home        Back to previous page - Frames - No Frames

 

Aint That a Shame

By Fats Domino Arranged and TablEdited by Len Curle

Tuning : E A D G B E Time Signature: 4/4
 |       |       |       |        |       |       |       |        
|--------------------------------|0-------------------------------|
|0-----------------------2-------|0-------------------------------|
|1-----------------------2-------|------------------------------1-|
|--------2---------------2-------|--------2---------------2-------|
|--------------------------------|--------------------------------|
|0---------------0---------------|0---------------0---------------|

 |       |       |       |        |       |       |       |        
|--------------------------------|0-------0-------2-------4-------|
|0-------0-------0-------2-------|--------------------------------|
|--------------------------------|--------1-------2-------4-------|
|--------2---------------2-------|--------------------------------|
|--------------------------------|--------------------------------|
|0---------------0---------------|0-------------------------------|

 |       |       |       |        |       |       |       |        
|0-------------------------------|--------0-------0---------------|
|--------------------------------|------2-------2---------2-------|
|--------------------------------|--------------------------------|
|--------2---------------2-------|--------2---------------2-------|
|0---------------0---------------|0---------------0---------------|
|--------------------------------|--------------------------------|

 |       |       |       |        |       |       |       |        
|--------------------------------|--------0-------2-------4-------|
|0-------------------------------|--------------------------------|
|--------------------------------|--------1-------2-------4-------|
|--------2---------------2-------|--------------------------------|
|--------------------------------|--------------------------------|
|0---------------0---------------|0-------------------------------|

 |       |       |       |        |       |       |       |        
|0-------------------------------|--------0-------0-------0-------|
|--------------------------------|------2-------2-----------------|
|--------------------------------|--------------------------------|
|--------2---------------2-------|--------2---------------2-------|
|0---------------0---------------|0---------------0---------------|
|--------------------------------|--------------------------------|

 |       |       |       |        |       |       |       |        
|2-----------------------2-------|2-------------------------------|
|----------------------0-------0-|--------------------------------|
|--------------------------------|--------------------------------|
|--------1---------------1-------|--------1---------------1-------|
|2---------------2---------------|2---------------2---------------|
|--------------------------------|--------------------------------|