Download Options    TablEdit - MIDI

Home        Back to previous page - Frames - No Frames

 

Bye Bye Love
By The Everly Brothers Arranged and TablEdited by Len Curle


Tuning : F# B E A C# F#  (Played in C with Capo at Second fret) 	Time Signature: 4/4


  |       |       |       |          |       |       |       |         
||1---------------1----------------|-0-------------------0------------|
|*1---------------1----------------|-1-----------1-------1------------|
||---------------------------------|-------------0--------------------|
||--------3---------------3--------|---------2---------------2--------|
|*---------------------------------|-3---------------3----------------|
||1---------------1----------------|----------------------------------|

  |       |       |       |          |       |       |       |         
|-----1---------------1------------|-0--------------------------------|
|-----------------1----------------|-1-------3-------1----------------|
|-------------2--------------------|---------0-------0----------------|
|---------3---------------3--------|---------2---------------2--------|
|----------------------------------|-3---------------3----------------|
|-1---------------1----------------|----------------------------------|

  |       |       |       |          |       |       |       |         
|-----1---------------1------------|-0--------------------------------|
|-----------------1----------------|-1-------3-------1-------1--------|
|-------------2--------------------|---------0-------0----------------|
|---------3---------------3--------|---------2---------------2--------|
|----------------------------------|-3---------------3----------------|
|-1---------------1----------------|----------------------------------|

  |       |       |       |          |       |       |       |         
|----------------------------------|----------------------------------|
|-3-----------3h--5---3------------|-1-----------------------1--------|
|-4-----------4-------4------------|-0--------------------------------|
|---------0---------------0--------|---------2---------------2--------|
|----------------------------------|-3---------------3----------------|
|-3---------------3----------------|----------------------------------|

  |       |       |       |          |       |       |       |         
|----------------------------------|---------0------------------------|
|-3-----------3h--5---3------------|-1---------------3-------1--------|
|-4-----------4-------4------------|-0--------------------------------|
|---------0---------------0--------|---------2---------------2--------|
|----------------------------------|-3---------------3----------------|
|-3---------------3----------------|----------------------------------|

  |       |       |       |          |       |       |       |         
|----------------------------------|----------------------------------|
|-3---------------3----------------|-----3-------3h--5---3------------|
|----------------------------------|----------------------------------|
|---------0---------------0--------|---------0---------------0--------|
|----------------------------------|----------------------------------|
|-3---------------3----------------|-3---------------3----------------|

  |       |       |       |          |       |       |       |         
|---------------------0------------|----------------------------------|
|-1--------------------------------|-3-------1-------3----------------|
|----------------------------------|----------------------------------|
|---------2---------------2--------|---------2---------------0--------|
|-3---------------3----------------|-3--------------------------------|
|----------------------------------|-----------------3----------------|

  |       |       |       |          |       |       |       |         
|----------------------------------|----------------------------------|
|-3-------------------3-------3h---|-5---3-----------1-------1--------|
|----------------------------------|----------------------------------|
|---------0---------------0--------|---------0---------------2--------|
|----------------------------------|-----------------3----------------|
|-3---------------3----------------|-3--------------------------------|

  |       |       |       |          |       |       |       |         
|---------0-------1----------------|-1-------------------1------------|
|-3--------------------------------|----------------------------------|
|----------------------------------|----------------------------------|
|---------2---------------3--------|---------3---------------3--------|
|-3--------------------------------|----------------------------------|
|-----------------1----------------|-1---------------1----------------|

  |       |       |       |          |       |       |       |         
|-0-------1-------3----------------|-----3-----------1-------0--------|
|----------------------------------|----------------------------------|
|----------------------------------|----------------------------------|
|---------3---------------0--------|---------0---------------0--------|
|----------------------------------|----------------------------------|
|-1---------------3----------------|-3---------------3----------------|

  |       |       |       |          |       |       |       |         
|----------------------------------|----------------------------------|
|-3---------------3----------------|-----3-------3h--5---3------------|
|----------------------------------|----------------------------------|
|---------0---------------0--------|---------0---------------0--------|
|----------------------------------|----------------------------------|
|-3---------------3----------------|-3---------------3----------------|
                                                      
  |       |       |       |          |       |       |       |         
|----------------------------------|----------------------------------|
|-1-------------------------------*|----------------------------------|
|---------------------------------||----------------------------------|
|---------2---------------2-------||----------------------------------|
|-3---------------3---------------*|----------------------------------|
|---------------------------------||----------------------------------|