Download Options TablEdit - MID

Home        Back to previous page - Frames - No Frames

 

Don't Be Cruel

Arranged & TablEdited by Len Curle

 

Tuning : E A D G B E Time Signature: 4/4


|       |        |       |         |       |        |       |        
|--------------------------------|--------------------------------|
|--------------------------------|------3-------0-3-------3-------|
|--------------------------------|--------------------------------|
|--------0---------------0-------|--------5---------------5-------|
|--------------------------------|--------------------------------|
|3---------------3---------------|3---------------3---------------|

|       |       |        |        |        |       |        |       
|--------------3-----------------|--------------------------------|
|3-----5-------------------------|--------------0-3-------3-------|
|--------------------------------|--------------------------------|
|--------5---------------5-------|--------5---------------5-------|
|--------------------------------|--------------------------------|
|3---------------3---------------|3---------------3---------------|

|       |       |        |        |        |       |        |       
|--------------3-----------------|----------------0-------0-------|
|3-----5-------------------------|--------------------------------|
|--------------------------------|------------------------0-------|
|--------5---------------5-------|--------5-----------------------|
|--------------------------------|----------------3---------------|
|3---------------3---------------|3-------------------------------|

|       |       |        |        |        |       |        |       
|0-------------0-0-----0---------|------0-------------------------|
|--------------------------------|----------------3-------3-------|
|--------0---------------0-------|--------0-----------------------|
|--------------------------------|------------------------5-------|
|3---------------3---------------|3-------------------------------|
|--------------------------------|----------------3---------------|

|       |       |        |        |        |       |        |       
|------0-------3-----------------|--------------------------------|
|3-------------------------------|0-------3-----------------------|
|--------------------------------|--------0-------2---------------|
|--------5---------------5-------|------------------------2-------|
|--------------------------------|----------------0---------------|
|3---------------3---------------|3-------------------------------|

|       |       |        |        |        |       |        |       
|--------------------------------|--------------------------------|
|----------------------0---------|----------------0---------------|
|------------------------------2-|0-------2-----------------------|
|--------2---------------2-------|--------2---------------0-------|
|0---------------0---------------|0-------------------------------|
|--------------------------------|----------------3---------------|

|       |       |        |        |        |       |        |       
|--------------------------------|--------------------------------|
|--------------------------------|0-------3-----------------------|
|--------------------------------|--------0-------2---------------|
|--------0---------------0-------|------------------------2-------|
|--------------------------------|----------------0---------------|
|3---------------3---------------|3-------------------------------|

|       |       |        |        |        |       |        |       
|--------------------------------|--------------------------------|
|----------------------0---------|----------------0---------------|
|------------------------------2-|0-------2-----------------------|
|--------2---------------2-------|--------2---------------0-------|
|0---------------0---------------|0-------------------------------|
|--------------------------------|----------------3---------------|

|       |       |        |        |        |       |        |       
|--------------------------------|0-------0-------0-----0---------|
|--------------------------------|--------------------------------|
|----------------------0---------|--------------------------------|
|--------0---------------0-------|--------2---------------0-------|
|--------------------------------|3---------------3---------------|
|3---------------3---------------|--------------------------------|

|       |       |        |        |        |       |        |       
|2-------------------------------|0-------0-------0-----0---------|
|--------------------------------|--------------------------------|
|--------------------------------|--------------------------------|
|--------0---------------0-------|--------2---------------0-------|
|0---------------0---------------|3---------------3---------------|
|--------------------------------|--------------------------------|

|       |       |        |        |        |       |        |       
|2-------------------------------|--------------------------------|
|--------------------------------|--------------------------------|
|--------------------------------|0-------------------------------|
|--------0-------2-------4-------|--------0---------------0-------|
|0-------------------------------|--------------------------------|
|--------------------------------|3---------------3---------------|

|       |       |        |        |        |       |        |       
|--------------------------------|--------------------------------|
|0-------3-----------------------|----------------------0---------|
|--------0-------2---------------|------------------------------2-|
|------------------------2-------|--------2---------------2-------|
|----------------0---------------|0---------------0---------------|
|3-------------------------------|--------------------------------|

|       |       |        |        |        |       |        |       
|--------------------------------|--------------------------------|
|----------------0---------------|--------------------------------|
|0-------2-----------------------|--------------------------------|
|--------2---------------0-------|--------0---------------0-------|
|0-------------------------------|--------------------------------|
|----------------3---------------|3---------------3---------------|

|       |       |        |        |        |       |        |       
|--------------------------------|--------------------------------|
|0-------3-----------------------|----------------------0---------|
|--------0-------2---------------|------------------------------2-|
|------------------------2-------|--------2---------------2-------|
|----------------0---------------|0---------------0---------------|
|3-------------------------------|--------------------------------|

|       |       |        |        |        |       |        |       
|--------------------------------|--------------------------------|
|----------------0---------------|--------------------------------|
|0-------2-----------------------|----------------------0---------|
|--------2---------------0-------|--------0---------------0-------|
|0-------------------------------|--------------------------------|
|----------------3---------------|3---------------3---------------|

|       |       |        |        |        |       |        |       
|0-------0-------0-----0---------|2-------------------------------|
|--------------------------------|--------------------------------|
|--------------------------------|--------------------------------|
|--------2---------------0-------|--------0---------------0-------|
|3---------------3---------------|0---------------0---------------|
|--------------------------------|--------------------------------|

|       |       |        |        |        |       |        |       
|0-------0-------0-----0---------|2-------------------------------|
|--------------------------------|--------------------------------|
|--------------------------------|--------------------------------|
|--------2---------------0-------|--------0-------2-------4-------|
|3---------------3---------------|0-------------------------------|
|--------------------------------|--------------------------------|

|       |       |        |        |        |       |        |       
|--------------------------------|----------------3---------------|
|--------------------------------|----------------3---------------|
|0-------------------------------|----------------4---------------|
|--------2-------0---------------|----------------5---------------|
|------------------------2-------|----------------5---------------|
|3-------------------------------|3---------------3---------------|