Download Options  MIDI - TablEdit

Home        Back to previous page - Frames - No Frames

 

Hit The Road Jack
By Ray Charles Arranged & TablEdited by Len Curle


Tuning : E A D G B E     Time Signature: 4/4

 
|       |       |       |        |       |       |       |        
|0-------------------------------|--------------------------------|
|1---------------3---------------|1---------------0---------------|
|----------------4---------------|2---------------1---------------|
|--------2---------------0-------|--------3---------------2-------|
|0-------------------------------|--------------------------------|
|----------------3---------------|1---------------0---------------|

 |       |       |       |        |       |       |       |        
|--------0-----------------------|------------------------0-------|
|------1---------3-----3---------|1---------------0-----0-------1-|
|--------------4-4-----4---------|2---------------1---------------|
|--------2---------------0-------|--------3---------------2-------|
|0-------------------------------|--------------------------------|
|----------------3---------------|1---------------0---------------|

 |       |       |       |        |       |       |       |        
|0-------------------------------|--------1-------0---------------|
|----------------3---------------|--------------------------------|
|--------------------------------|------------------------------0-|
|--------2---------------0-------|--------3---------------2-------|
|0-------------------------------|--------------------------------|
|----------------3---------------|1---------------0---------------|

 |       |       |       |        |       |       |       |        
|--------------------------------|------------------------0-------|
|--------------------------------|1-------1-------0-----0-------1-|
|2-----2---------4-------4-------|--------------------------------|
|--------2---------------0-------|--------3---------------2-------|
|0-------------------------------|--------------------------------|
|----------------3---------------|1---------------0---------------|

 |       |       |       |        |       |       |       |        
|0-------------------------------|--------1-------0---------------|
|----------------3---------------|--------------------------------|
|--------------------------------|------------------------------0-|
|--------2---------------0-------|--------3---------------2-------|
|0-------------------------------|--------------------------------|
|----------------3---------------|1---------------0---------------|

 |       |       |       |        |       |       |       |        
|--------------------------------|--------------------------------|
|--------------------------------|------------------------------1-|
|2-----2---------0-------0-------|2-------------------------------|
|--------2---------------0-------|--------3---------------2-------|
|0-------------------------------|--------------------------------|
|----------------3---------------|1---------------0---------------|

 |       |       |       |        |       |       |       |        
|0-------0-----------------------|------------------------0-----0-|
|------1---------3-------3-----3-|1-------1-------0---------------|
|----------------------4---------|------2-------------------------|
|--------2---------------0-------|--------3---------------2-------|
|0-------------------------------|--------------------------------|
|----------------3---------------|1---------------0---------------|

 |       |       |       |        |       |       |       |        
|0-------0-----------------------|--------------------------------|
|------1---------3-------3-----3-|1-------1-------0---------------|
|--------------------------------|------------------------------0-|
|--------2---------------0-------|--------3---------------2-------|
|0-------------------------------|--------------------------------|
|----------------3---------------|1---------------0---------------|

 |       |       |       |        |       |       |       |        
|--------------------------------|------------------------------0-|
|----------------0-------0-------|1-------------------------------|
|2-------2-----------------------|--------------------------------|
|--------2---------------0-------|--------3---------------2-------|
|0-------------------------------|--------------------------------|
|----------------3---------------|1---------------0---------------|

 |       |       |       |        |       |       |       |        
|0-------0-----------------------|--------1-------0-------0-------|
|------1---------3-------3-------|1---------------------0-------1-|
|--------------4-----------------|--------------------------------|
|--------2---------------0-------|--------3---------------2-------|
|0-------------------------------|--------------------------------|
|----------------3---------------|1---------------0---------------|

 |       |       |       |        |       |       |       |        
|--------1-------0---------------|--------------------------------|
|1-------------------------------|--------------------------------|
|--------------------------------|2-----2---------0-------0-------|
|--------3---------------2-------|--------2---------------0-------|
|--------------------------------|0-------------------------------|
|1---------------0---------------|----------------3---------------|

 |       |       |       |        |       |       |       |        
|--------1-------0---------------|--------------------------------|
|--------------------------------|1-------------------------------|
|2-------------------------------|2-------------------------------|
|--------3---------------2-------|--------------------------------|
|--------------------------------|0-------------------------------|
|1---------------0---------------|--------------------------------|