Download Options  TablEdit - MIDI

Home        Back to previous page - Frames - No Frames

 

It Dosn't Matter Anymore
By Buddy Holly & The Crickets Arranged & TablEdited by Len Curle

 

Tuning : E A D G B E Time Signature: 4/4

 |       |       |       |        |       |       |       |        
|--------0-----------------------|--------------------------------|
|--------------------1h--3-------|1-------------------1-----------|
|--------------------------------|------------0h--2---------------|
|--------2---------------2-------|--------2---------------0-------|
|3---------------3---------------|3---------------3---------------|
|--------------------------------|--------------------------------|

 |       |       |       |        |       |       |       |        
|--------0-----------------------|--------------------0-----------|
|------------------------3-------|1-----------1h--3---------------|
|--------------------------------|--------------------------------|
|--------2---------------2-------|--------2---------------0-------|
|3---------------3---------------|3---------------3---------------|
|--------------------------------|--------------------------------|

 |       |       |       |        |       |       |       |        
|--------1-----------0-----------|--------------------0-----------|
|--------------------------------|3-----------0h--3---------------|
|--------------------------------|--------------------------------|
|--------0---------------0-------|--------0---------------0-------|
|--------------------------------|--------------------------------|
|3---------------3---------------|3---------------3---------------|

 |       |       |       |        |       |       |       |        
|--------1-----------0-----------|--------------------------------|
|--------------------------------|3-----------0h--1---3-----------|
|--------------------------------|--------------------------------|
|--------0---------------0-------|--------0---------------0-------|
|--------------------------------|--------------------------------|
|3---------------3---------------|3---------------3---------------|

 |       |       |       |        |       |       |       |        
|--------0-----------------------|--------------------------------|
|--------------------1h--3-------|1-------------------1-----------|
|--------------------------------|------------0h--2---------------|
|--------2---------------2-------|--------2---------------0-------|
|3---------------3---------------|3---------------3---------------|
|--------------------------------|--------------------------------|

 |       |       |       |        |       |       |       |        
|--------0-----------------------|--------------------------------|
|------------------------3-------|1-----------1-------1-----------|
|--------------------------------|--------------------------------|
|--------2---------------2-------|--------2---------------2-------|
|3---------------3---------------|3---------------3---------------|
|--------------------------------|--------------------------------|

 |       |       |       |        |       |       |       |        
|--------------------------------|0---------------0---------------|
|3-------3-------3---3-----------|--------3-----------3-----------|
|--------------------------------|--------------------------------|
|--------0---------------0-------|--------0---------------0-------|
|--------------------------------|--------------------------------|
|3---------------3---------------|3---------------3---------------|

 |       |       |       |        |       |       |       |        
|--------------------------------|--------------------------------|
|1-------------------------------|--------------------------------|
|--------------------------------|--------2-----------0-----------|
|--------2---------------2-------|--------2---------------2-------|
|3---------------3---------------|0---------------0---------------|
|--------------------------------|--------------------------------|

 |       |       |       |        |       |       |       |        
|--------------------------------|--------0-----------0h--3-------|
|--------0-------1-------3-------|--------------------------------|
|2-------------------------------|--------------------------------|
|--------2---------------2-------|--------2---------------2-------|
|0---------------3---------------|3---------------3---------------|
|--------------------------------|--------------------------------|

 |       |       |       |        |       |       |       |        
|0-------------------------------|0-------0---0-------3-----------|
|--------3-------1---------------|--------------------------------|
|--------------------------------|--------------------------------|
|--------2---------------2-------|--------2---------------2-------|
|3---------------3---------------|3---------------3---------------|
|--------------------------------|--------------------------------|

 |       |       |       |        |       |       |       |        
|0-------------------------------|--------0-----------0h--3-------|
|--------3-------1-------3-------|--------------------------------|
|--------------------------------|--------------------------------|
|--------2---------------2-------|--------2---------------2-------|
|3---------------3---------------|3---------------3---------------|
|--------------------------------|--------------------------------|

 |       |       |       |        |       |       |       |        
|0-------------------------------|--------------------0-----------|
|--------3-------1---------------|3-------3---3-------------------|
|--------------------------------|--------------------------------|
|--------2---------------2-------|--------0---------------0-------|
|3---------------3---------------|0---------------0---------------|
|--------------------------------|--------------------------------|

 |       |       |       |        |       |       |       |        
|--------------------------------|--------------------0-----------|
|3-------------------------------|3-------3---3-------------------|
|--------------------------------|--------------------------------|
|--------0---------------0-------|--------0---------------0-------|
|0---------------0---------------|0---------------0---------------|
|--------------------------------|--------------------------------|

 |       |       |       |        |       |       |       |        
|------------0-------------------|3-------------------------------|
|3-------------------3-----------|--------------------------------|
|--------------------------------|--------------------------------|
|--------0---------------0-------|--------0---------------0-------|
|0---------------0---------------|--------------------------------|
|--------------------------------|3---------------3---------------|

 |       |       |       |        |       |       |       |        
|1-------------------------------|0-------------------------------|
|--------------------------------|--------------------------------|
|--------------------------------|--------------------------------|
|--------0---------------0-------|--------0---------------0-------|
|--------------------------------|--------------------------------|
|3---------------3---------------|3---------------3---------------|

 |       |       |       |        |       |       |       |        
|--------------------------------|--------0-----------------------|
|3-------------------1-----------|--------------------1h--3-------|
|------------0h--2---------------|--------------------------------|
|--------2---------------0-------|--------2---------------2-------|
|----------------3---------------|3---------------3---------------|
|3-------------------------------|--------------------------------|

 |       |       |       |        |       |       |       |        
|--------------------------------|--------0-----------------------|
|1-------------------1-----------|--------------------1h--3-------|
|------------0h--2---------------|--------------------------------|
|--------2---------------0-------|--------2---------------2-------|
|3---------------3---------------|3---------------3---------------|
|--------------------------------|--------------------------------|

 |       |       |       |        |       |       |       |        
|--------------------------------|----1-----------1-------0-------|
|1-------------------------------|--------------------------------|
|--------------------------------|--------------------------------|
|--------2---------------0-------|--------0---------------0-------|
|3---------------3---------------|--------------------------------|
|--------------------------------|3---------------3---------------|

 |       |       |       |        |       |       |       |        
|--------------------0-----------|--------1-----------0-----------|
|3---3-------3-------------------|--------------------------------|
|--------------------------------|--------------------------------|
|--------0---------------0-------|--------0---------------0-------|
|--------------------------------|--------------------------------|
|3---------------3---------------|3---------------3---------------|

 |       |       |       |        |       |       |       |        
|--------------------------------|--------0-----------------------|
|3-----------0h--1---3-----------|--------------------1h--3-------|
|--------------------------------|--------------------------------|
|--------0---------------0-------|--------2---------------2-------|
|--------------------------------|3---------------3---------------|
|3---------------3---------------|--------------------------------|

 |       |       |       |        |       |       |       |        
|--------------------------------|--------0-----------------------|
|1-------------------1-----------|--------------------1h--3-------|
|------------0h--2---------------|--------------------------------|
|--------2---------------0-------|--------2---------------2-------|
|3---------------3---------------|3---------------3---------------|
|--------------------------------|--------------------------------|

 |       |       |       |        |       |       |       |        
|--------------------------------|--------------------------------|
|1-----------1-------1-----------|3-------3-------3---3-----------|
|--------------------------------|--------------------------------|
|--------2---------------2-------|--------0---------------0-------|
|3---------------3---------------|--------------------------------|
|--------------------------------|3---------------3---------------|

 |       |       |       |        |       |       |       |        
|0---------------0---------------|--------------------------------|
|--------3-----------3-----------|1-------------------------------|
|--------------------------------|--------------------------------|
|--------0---------------0-------|--------------------------------|
|--------------------------------|3-------------------------------|
|3---------------3---------------|--------------------------------|