Download Options Desktop Guitarist - TablEdit - MIDI

Home        Back to previous page - Frames - No Frames

 

Peggy Sue
By Holly, Allison & Petty Arranged & TablEdited by Len Curle

Tuning : E A D G B E Time Signature: 4/4

 
 |       |       |       |        |       |       |       |        
|------------0-------------------|--------------------------------|
|1-------1-----------------------|------------1-------------------|
|--------------------------------|2-------2-----------------------|
|--------2---------------2-------|--------3---------------3-------|
|3-------------------------------|3---------------3---------------|
|----------------3---------------|--------------------------------|

 |       |       |       |        |       |       |       |        
|--------------------------------|0-------------------------------|
|--------------------1-----------|--------3-------1---------------|
|0-------0-------2---------------|------------------------0-------|
|--------2---------------3-------|--------2---------------2-------|
|3---------------3---------------|3---------------3---------------|
|--------------------------------|--------------------------------|

 |       |       |       |        |       |       |       |        
|--------------------------------|--------1-------1---1-----------|
|----1---------------------------|----1-------1---------------1---|
|2-------------------------------|--------------------------------|
|--------3---------------3-------|--------3---------------3-------|
|--------------------------------|--------------------------------|
|1---------------1---------------|1---------------1---------------|

 |       |       |       |        |       |       |       |        
|0-------------------------------|--------------------------------|
|--------3-------1-------1-------|0---3---------------------------|
|--------------------------------|----------------0-------0-------|
|--------2---------------2-------|--------0---------------0-------|
|3---------------3---------------|--------------------------------|
|--------------------------------|3---------------3---------------|

 |       |       |       |        |       |       |       |        
|------------0-------------------|--------------------------------|
|0---3---------------3-----------|1-------------------------------|
|--------------------------------|--------------------------------|
|--------0---------------0-------|--------2---------------2-------|
|--------------------------------|3---------------3---------------|
|3---------------3---------------|--------------------------------|

 |       |       |       |        |       |       |       |        
|--------------------------------|--------------------------------|
|1-------1---1-------------------|1-------1---1-------------------|
|--------------------------------|--------------------------------|
|--------2---------------2-------|--------2---------------2-------|
|3---------------3---------------|3---------------3---------------|
|--------------------------------|--------------------------------|

 |       |       |       |        |       |       |       |        
|--------------------------------|--------------------------------|
|--------------------------------|1-------1---1-------------------|
|5---5---5---5---5---5---5---5---|------------------------0-------|
|--------4---------------4-------|--------2---------------2-------|
|--------------------------------|3---------------3---------------|
|4---------------4---------------|--------------------------------|

 |       |       |       |        |       |       |       |        
|--------------------------------|--------1-------1---1-----------|
|----1---------------------------|----1-------1---------------1---|
|2-------------------------------|--------------------------------|
|--------3---------------3-------|--------3---------------3-------|
|--------------------------------|--------------------------------|
|1---------------1---------------|1---------------1---------------|

 |       |       |       |        |       |       |       |        
|0-------------------------------|--------------------------------|
|--------3-------1-------1-------|0---3---------------------------|
|--------------------------------|----------------0-------0-------|
|--------2---------------2-------|--------0---------------0-------|
|3---------------3---------------|--------------------------------|
|--------------------------------|3---------------3---------------|

 |       |       |       |        |       |       |       |        
|------------0-------------------|--------------------------------|
|0---3---------------3-----------|1-------------------------------|
|--------------------------------|--------------------------------|
|--------0---------------0-------|--------2---------------2-------|
|--------------------------------|3---------------3---------------|
|3---------------3---------------|--------------------------------|