Download Options Desktop Guitarist - TablEdit - MIDI

Home        Back to previous page - Frames - No Frames

 

Rave On
By Hardin, Petty & Tilghman  Arranged & TablEdited by Len Curle

 

Tuning : E A D G B E Time Signature: 4/4


 |       |       |       |        |       |       |       |        
|--------------------0-----------|--------------------------------|
|3-------3---3---------------3---|0-------0---0-------------------|
|--------------------------------|--------------------------------|
|--------0---------------0-------|--------0---------------0-------|
|--------------------------------|--------------------------------|
|3---------------3---------------|3---------------3---------------|

 |       |       |       |        |       |       |       |        
|--------------------0-----------|--------------------------------|
|3-------3---3---------------3---|0-------0---3-------1---0-------|
|--------------------------------|--------------------------------|
|--------0---------------0-------|--------0---------------0-------|
|--------------------------------|--------------------------------|
|3---------------3---------------|3---------------3---------------|

 |       |       |       |        |       |       |       |        
|--------------------------------|--------------------------------|
|--------1-------1---------------|1---1---1---3-----------1-------|
|--------------------------------|--------------------------------|
|--------2---------------2-------|--------2---------------2-------|
|3---------------3---------------|3---------------3---------------|
|--------------------------------|--------------------------------|

 |       |       |       |        |       |       |       |        
|--------------------------------|--------------------------------|
|--------0-------0---------------|0---0---0---1-----------0-------|
|--------------------------------|--------------------------------|
|--------0---------------0-------|--------0---------------0-------|
|--------------------------------|--------------------------------|
|3---------------3---------------|3---------------3---------------|

 |       |       |       |        |       |       |       |        
|--------------------------------|--------------------------------|
|--------------------------------|------------0-------------------|
|--------2-------2---------------|2---2---2-----------2-----------|
|--------0---------------0-------|--------0---------------0-------|
|--------------------------------|--------------------------------|
|2---------------2---------------|2---------------2---------------|

 |       |       |       |        |       |       |       |        
|--------------------------------|--------------------------------|
|--------------------------------|--------------------------------|
|0---------------0---0-----------|0-------------------------------|
|--------0---------------2-------|--------0---------------0-------|
|----------------3---------------|--------------------------------|
|3-------------------------------|3---------------2---------------|

 |       |       |       |        |       |       |       |        
|--------------------0-----------|--------------------------------|
|3-------3---3---------------3---|0-------0---0-------------------|
|--------------------------------|--------------------------------|
|--------0---------------0-------|--------0---------------0-------|
|--------------------------------|--------------------------------|
|3---------------3---------------|3---------------3---------------|

 |       |       |       |        |       |       |       |        
|--------------------0-----------|--------------------------------|
|3-------3---3---------------3---|0-------0---3-------1---0-------|
|--------------------------------|--------------------------------|
|--------0---------------0-------|--------0---------------0-------|
|--------------------------------|--------------------------------|
|3---------------3---------------|3---------------3---------------|

 |       |       |       |        |       |       |       |        
|--------------------------------|--------------------------------|
|--------1-------1---------------|1---1---1---3-----------1-------|
|--------------------------------|--------------------------------|
|--------2---------------2-------|--------2---------------2-------|
|3---------------3---------------|3---------------3---------------|
|--------------------------------|--------------------------------|

 |       |       |       |        |       |       |       |        
|--------------------------------|--------------------------------|
|--------0-------0---------------|0---0---0---1-----------0-------|
|--------------------------------|--------------------------------|
|--------0---------------0-------|--------0---------------0-------|
|--------------------------------|--------------------------------|
|3---------------3---------------|3---------------3---------------|

 |       |       |       |        |       |       |       |        
|--------------------------------|--------------------------------|
|--------------------------------|------------0-------------------|
|--------2-------2---------------|2---2---2-----------2-----------|
|--------0---------------0-------|--------0---------------0-------|
|--------------------------------|--------------------------------|
|2---------------2---------------|2---------------2---------------|

 |       |       |       |        |       |       |       |        
|--------------------------------|--------------------------------|
|--------------------------------|------------------------0-------|
|0---------------0---0-----------|0-------0-------2---------------|
|--------0---------------2-------|--------0---------------0-------|
|----------------3---------------|--------------------------------|
|3-------------------------------|3---------------2---------------|

 |       |       |       |        |       |       |       |        
|--------------------------------|--------------------------------|
|--------1-------1---------------|1---1---1---3-----------1-------|
|--------------------------------|--------------------------------|
|--------2---------------2-------|--------2---------------2-------|
|3---------------3---------------|3---------------3---------------|
|--------------------------------|--------------------------------|

 |       |       |       |        |       |       |       |        
|--------------------------------|--------------------------------|
|--------0-------0---------------|0---0---0---1-----------0-------|
|--------------------------------|--------------------------------|
|--------0---------------0-------|--------0---------------0-------|
|--------------------------------|--------------------------------|
|3---------------3---------------|3---------------3---------------|

 |       |       |       |        |       |       |       |        
|--------------------------------|--------------------------------|
|--------------------------------|------------0-------------------|
|--------2-------2---------------|2---2---2-----------2-----------|
|--------0---------------0-------|--------0---------------0-------|
|--------------------------------|--------------------------------|
|2---------------2---------------|2---------------2---------------|

 |       |       |       |        |       |       |       |        
|--------------------------------|--------------------------------|
|--------------------------------|0-----------------------0-------|
|0---------------2---------------|--------0-------2---------------|
|--------0---------------0-------|--------0---------------0-------|
|--------------------------------|--------------------------------|
|3---------------2---------------|3---------------2---------------|

 |       |       |       |        |       |       |       |        
|--------------------------------|--------------------------------|
|--------1-------1---------------|1---1---1---3-----------1-------|
|--------------------------------|--------------------------------|
|--------2---------------2-------|--------2---------------2-------|
|3---------------3---------------|3---------------3---------------|
|--------------------------------|--------------------------------|

 |       |       |       |        |       |       |       |        
|--------------------------------|--------------------------------|
|--------0-------0---------------|0---0---0---1-----------0-------|
|--------------------------------|--------------------------------|
|--------0---------------0-------|--------0---------------0-------|
|--------------------------------|--------------------------------|
|3---------------3---------------|3---------------3---------------|

 |       |       |       |        |       |       |       |        
|--------------------------------|--------------------------------|
|--------------------------------|------------0-------------------|
|--------2-------2---------------|2---2---2-----------2-----------|
|--------0---------------0-------|--------0---------------0-------|
|--------------------------------|--------------------------------|
|2---------------2---------------|2---------------2---------------|

 |       |       |       |        |       |       |       |        
|--------------------------------|--------------------------------|
|--------------------------------|--------------------------------|
|0---------------0---0-----------|0-------------------------------|
|--------0---------------2-------|--------0---------------0-------|
|----------------3---------------|--------------------------------|
|3-------------------------------|3---------------2---------------|