Download Options TablEdit - MID

Home        Back to previous page - Frames - No Frames

 

Riders On The Storm


by The Doors Arranged & TablEdited by Len Curle

 

Tuning : E A D G B E Time Signature: 4/4

 |       |       |       |        |       |       |       |        
|--------------------------------|------------------------2-------|
|--------------------------------|------------------------3-------|
|--------------------------------|--------------------------------|
|--------2---------------2-------|--------2---------------0-------|
|--------------------------------|--------------------------------|
|0---------------0---------------|0---------------0---------------|

 |       |       |       |        |       |       |       |        
|0-------------------------------|------------------------2-------|
|0-------------------------------|------------------------3-------|
|--------------------------------|--------------------------------|
|--------2---------------2-------|--------2---------------0-------|
|--------------------------------|--------------------------------|
|0---------------0---------------|0---------------0---------------|

 |       |       |       |        |       |       |       |        
|0-------------------------------|------------------------2-------|
|0-------------------------------|------------------------3-------|
|--------------------------------|--------------------------------|
|--------2---------------2-------|--------2---------------0-------|
|--------------------------------|--------------------------------|
|0---------------0---------------|0---------------0---------------|

 |       |       |       |        |       |       |       |        
|0-------------------------------|------------------------2-------|
|0-------------------------------|------------------------3-------|
|--------------------------------|--------------------------------|
|--------2---------------2-------|--------2---------------0-------|
|--------------------------------|--------------------------------|
|0---------------0---------------|0---------------0---------------|

 |       |       |       |        |       |       |       |        
|0-------------------------------|----------------0---0---3-------|
|0-------------------------------|----------------------------3---|
|--------------------------------|--------------------------------|
|--------2---------------2-------|--------2---------------2-------|
|--------------------------------|--------------------------------|
|0---------------0---------------|0---------------0---------------|

 |       |       |       |        |       |       |       |        
|0-------------------------------|----------------0---0---3-------|
|--------------------------------|----0-------0---------------3---|
|--------------------------------|--------------------------------|
|--------2---------------2-------|--------2---------------2-------|
|--------------------------------|--------------------------------|
|0---------------0---------------|0---------------0---------------|

 |       |       |       |        |       |       |       |        
|0-------------------------------|--------0-------5---5---5---3---|
|--------------------------------|--------------------------------|
|--------------------------------|------------------------2-------|
|--------2---------------2-------|--------2-----------------------|
|--------------------------------|----------------0---------------|
|0---------------0---------------|0-------------------------------|

 |       |       |       |        |       |       |       |        
|5-------------------------------|--------5---5---0---0---3-------|
|--------------------------------|----------------------------3---|
|--------------------------------|--------------------------------|
|--------2---------------2-------|--------2---------------2-------|
|0---------------0---------------|0-------------------------------|
|--------------------------------|----------------0---------------|

 |       |       |       |        |       |       |       |        
|0-------------------------------|--------0-------5---5---5---3---|
|--------------------------------|--------------------------------|
|--------------------------------|------------------------2-------|
|--------2---------------2-------|--------2-------0---------------|
|--------------------------------|--------------------------------|
|0---------------0---------------|0-------------------------------|

 |       |       |       |        |       |       |       |        
|5-------3-------3---3---3---0---|3-------3---3---0---0---3-------|
|--------------------------------|----------------------------3---|
|--------2-----------------------|--------------------------------|
|0-----------------------2-------|--------2---------------2-------|
|----------------3---------------|3-------------------------------|
|--------------------------------|----------------0---------------|

 |       |       |       |        |       |       |       |        
|0-------------------------------|-------------------------------|
|--------------------------------|-------------------------------|
|--------------------------------|-------------------------------|
|--------2---------------2-------|-------------------------------|
|--------------------------------|-------------------------------|
|0---------------0---------------|-------------------------------|